ISO-10303-21;
HEADER;
FILE_DESCRIPTION (( 'STEP AP214' ),
    '1' );
FILE_NAME ('4501-E0W.STEP',
    '2009-12-21T17:06:52',
    ( ' ' ),
    ( ' ' ),
    'SwSTEP 2.0',
    'SolidWorks 2009',
    '' );
FILE_SCHEMA (( 'AUTOMOTIVE_DESIGN' ));
ENDSEC;

DATA;
#1 = EDGE_LOOP ( 'NONE', ( #2, #3, #6, #4 ) ) ;
#2 = ORIENTED_EDGE ( 'NONE', *, *, #253, .F. ) ;
#3 = ORIENTED_EDGE ( 'NONE', *, *, #5, .T. ) ;
#4 = ORIENTED_EDGE ( 'NONE', *, *, #20, .T. ) ;
#5 = EDGE_CURVE ( 'NONE', #32, #31, #48, .T. ) ;
#6 = ORIENTED_EDGE ( 'NONE', *, *, #30, .T. ) ;
#7 = EDGE_LOOP ( 'NONE', ( #8, #39 ) ) ;
#8 = ORIENTED_EDGE ( 'NONE', *, *, #259, .F. ) ;
#9 = ADVANCED_FACE ( 'NONE', ( #50 ), #72, .T. ) ;
#10 = VERTEX_POINT ( 'NONE', #85 ) ;
#11 = EDGE_LOOP ( 'NONE', ( #36, #250, #252, #38 ) ) ;
#12 = ADVANCED_FACE ( 'NONE', ( #102 ), #89, .T. ) ;
#13 = EDGE_LOOP ( 'NONE', ( #14, #23, #33, #40, #41 ) ) ;
#14 = ORIENTED_EDGE ( 'NONE', *, *, #21, .F. ) ;
#15 = ORIENTED_EDGE ( 'NONE', *, *, #16, .F. ) ;
#16 = EDGE_CURVE ( 'NONE', #22, #31, #110, .T. ) ;
#17 = ADVANCED_FACE ( 'NONE', ( #93 ), #132, .F. ) ;
#18 = ORIENTED_EDGE ( 'NONE', *, *, #21, .T. ) ;
#19 = ORIENTED_EDGE ( 'NONE', *, *, #256, .F. ) ;
#20 = EDGE_CURVE ( 'NONE', #257, #254, #120, .T. ) ;
#21 = EDGE_CURVE ( 'NONE', #10, #260, #111, .T. ) ;
#22 = VERTEX_POINT ( 'NONE', #112 ) ;
#23 = ORIENTED_EDGE ( 'NONE', *, *, #24, .T. ) ;
#24 = EDGE_CURVE ( 'NONE', #10, #22, #119, .T. ) ;
#25 = PRESENTATION_STYLE_ASSIGNMENT (( #26 ) ) ;
#26 = SURFACE_STYLE_USAGE ( .BOTH. , #27 ) ;
#27 = SURFACE_SIDE_STYLE ('',( #28 ) ) ;
#28 = SURFACE_STYLE_FILL_AREA ( #208 ) ;
#29 = ORIENTED_EDGE ( 'NONE', *, *, #30, .F. ) ;
#30 = EDGE_CURVE ( 'NONE', #31, #257, #142, .T. ) ;
#31 = VERTEX_POINT ( 'NONE', #143 ) ;
#32 = VERTEX_POINT ( 'NONE', #137 ) ;
#33 = ORIENTED_EDGE ( 'NONE', *, *, #16, .T. ) ;
#34 = CLOSED_SHELL ( 'NONE', ( #12, #35, #37, #9, #17 ) ) ;
#35 = ADVANCED_FACE ( 'NONE', ( #131 ), #182, .T. ) ;
#36 = ORIENTED_EDGE ( 'NONE', *, *, #256, .T. ) ;
#37 = ADVANCED_FACE ( 'NONE', ( #189 ), #160, .T. ) ;
#38 = ORIENTED_EDGE ( 'NONE', *, *, #20, .F. ) ;
#39 = ORIENTED_EDGE ( 'NONE', *, *, #24, .F. ) ;
#40 = ORIENTED_EDGE ( 'NONE', *, *, #5, .F. ) ;
#41 = ORIENTED_EDGE ( 'NONE', *, *, #251, .F. ) ;
#42 = CARTESIAN_POINT ( 'NONE',  ( 0.0000000000000000000, 0.0000000000000000000, 0.7372090656191160300 ) ) ;
#43 = AXIS2_PLACEMENT_3D ( 'NONE', #42, #47, #46 ) ;
#44 = STYLED_ITEM ( 'NONE', ( #25 ), #220 ) ;
#45 =( GEOMETRIC_REPRESENTATION_CONTEXT ( 3 ) GLOBAL_UNCERTAINTY_ASSIGNED_CONTEXT ( ( #62 ) ) GLOBAL_UNIT_ASSIGNED_CONTEXT ( ( #49, #61, #60 ) ) REPRESENTATION_CONTEXT ( 'NONE', 'WORKASPACE' ) );
#46 = DIRECTION ( 'NONE',  ( 1.000000000000000000, 0.0000000000000000000, 0.0000000000000000000 ) ) ;
#47 = DIRECTION ( 'NONE',  ( -0.0000000000000000000, -0.0000000000000000000, 1.000000000000000000 ) ) ;
#48 = CIRCLE ( 'NONE', #43, 12.69999999999999900 ) ;
#49 =( LENGTH_UNIT ( ) NAMED_UNIT ( * ) SI_UNIT ( .MILLI., .METRE. ) );
#50 = FACE_OUTER_BOUND ( 'NONE', #13, .T. ) ;
#51 = SURFACE_STYLE_USAGE ( .BOTH. , #59 ) ;
#52 = SURFACE_STYLE_FILL_AREA ( #55 ) ;
#53 = FILL_AREA_STYLE_COLOUR ( '', #56 ) ;
#54 = PRESENTATION_STYLE_ASSIGNMENT (( #51 ) ) ;
#55 = FILL_AREA_STYLE ('',( #53 ) ) ;
#56 = COLOUR_RGB ( '',0.9568627450980391500, 0.9490196078431372100, 0.9607843137254902200 ) ;
#57 = PRESENTATION_LAYER_ASSIGNMENT (  '', '', ( #63 ) ) ;
#58 = MECHANICAL_DESIGN_GEOMETRIC_PRESENTATION_REPRESENTATION (  '', ( #63 ), #45 ) ;
#59 = SURFACE_SIDE_STYLE ('',( #52 ) ) ;
#60 =( NAMED_UNIT ( * ) SI_UNIT ( $, .STERADIAN. ) SOLID_ANGLE_UNIT ( ) );
#61 =( NAMED_UNIT ( * ) PLANE_ANGLE_UNIT ( ) SI_UNIT ( $, .RADIAN. ) );
#62 = UNCERTAINTY_MEASURE_WITH_UNIT (LENGTH_MEASURE( 1.000000000000000100E-005 ), #49, 'distance_accuracy_value', 'NONE');
#63 = STYLED_ITEM ( 'NONE', ( #54 ), #9 ) ;
#64 = DIRECTION ( 'NONE',  ( 1.000000000000000000, 0.0000000000000000000, 0.0000000000000000000 ) ) ;
#65 = FILL_AREA_STYLE ('',( #79 ) ) ;
#66 = COLOUR_RGB ( '',0.9568627450980391500, 0.9490196078431372100, 0.9607843137254902200 ) ;
#67 = DIRECTION ( 'NONE',  ( -0.0000000000000000000, -0.0000000000000000000, 1.000000000000000000 ) ) ;
#68 = CARTESIAN_POINT ( 'NONE',  ( 0.0000000000000000000, 0.0000000000000000000, 4.308132045400366600 ) ) ;
#69 = FILL_AREA_STYLE_COLOUR ( '', #92 ) ;
#70 =( NAMED_UNIT ( * ) SI_UNIT ( $, .STERADIAN. ) SOLID_ANGLE_UNIT ( ) );
#71 = DIRECTION ( 'NONE',  ( -0.0000000000000000000, -0.0000000000000000000, 1.000000000000000000 ) ) ;
#72 = CYLINDRICAL_SURFACE ( 'NONE', #97, 12.69999999999999900 ) ;
#73 = UNCERTAINTY_MEASURE_WITH_UNIT (LENGTH_MEASURE( 1.000000000000000100E-005 ), #96, 'distance_accuracy_value', 'NONE');
#74 = SURFACE_STYLE_FILL_AREA ( #101 ) ;
#75 = SURFACE_SIDE_STYLE ('',( #74 ) ) ;
#76 = PRESENTATION_LAYER_ASSIGNMENT (  '', '', ( #90 ) ) ;
#77 = DIRECTION ( 'NONE',  ( 1.000000000000000000, 0.0000000000000000000, 0.0000000000000000000 ) ) ;
#78 = MECHANICAL_DESIGN_GEOMETRIC_PRESENTATION_REPRESENTATION (  '', ( #90 ), #104 ) ;
#79 = FILL_AREA_STYLE_COLOUR ( '', #66 ) ;
#80 = VECTOR ( 'NONE', #108, 1000.000000000000000 ) ;
#81 = SURFACE_STYLE_USAGE ( .BOTH. , #82 ) ;
#82 = SURFACE_SIDE_STYLE ('',( #83 ) ) ;
#83 = SURFACE_STYLE_FILL_AREA ( #65 ) ;
#84 = PRESENTATION_STYLE_ASSIGNMENT (( #103 ) ) ;
#85 = CARTESIAN_POINT ( 'NONE',  ( -12.69999999999999900, 1.555250069354419100E-015, -1.259999999999999800 ) ) ;
#86 = STYLED_ITEM ( 'NONE', ( #87 ), #17 ) ;
#87 = PRESENTATION_STYLE_ASSIGNMENT (( #81 ) ) ;
#88 = AXIS2_PLACEMENT_3D ( 'NONE', #68, #67, #77 ) ;
#89 = CYLINDRICAL_SURFACE ( 'NONE', #88, 12.69999999999999900 ) ;
#90 = STYLED_ITEM ( 'NONE', ( #84 ), #12 ) ;
#91 =( NAMED_UNIT ( * ) PLANE_ANGLE_UNIT ( ) SI_UNIT ( $, .RADIAN. ) );
#92 = COLOUR_RGB ( '',0.9568627450980391500, 0.9490196078431372100, 0.9607843137254902200 ) ;
#93 = FACE_OUTER_BOUND ( 'NONE', #7, .T. ) ;
#94 = MECHANICAL_DESIGN_GEOMETRIC_PRESENTATION_REPRESENTATION (  '', ( #86 ), #106 ) ;
#95 = PRESENTATION_LAYER_ASSIGNMENT (  '', '', ( #86 ) ) ;
#96 =( LENGTH_UNIT ( ) NAMED_UNIT ( * ) SI_UNIT ( .MILLI., .METRE. ) );
#97 = AXIS2_PLACEMENT_3D ( 'NONE', #107, #71, #64 ) ;
#98 = UNCERTAINTY_MEASURE_WITH_UNIT (LENGTH_MEASURE( 1.000000000000000100E-005 ), #100, 'distance_accuracy_value', 'NONE');
#99 =( NAMED_UNIT ( * ) SI_UNIT ( $, .STERADIAN. ) SOLID_ANGLE_UNIT ( ) );
#100 =( LENGTH_UNIT ( ) NAMED_UNIT ( * ) SI_UNIT ( .MILLI., .METRE. ) );
#101 = FILL_AREA_STYLE ('',( #69 ) ) ;
#102 = FACE_OUTER_BOUND ( 'NONE', #261, .T. ) ;
#103 = SURFACE_STYLE_USAGE ( .BOTH. , #75 ) ;
#104 =( GEOMETRIC_REPRESENTATION_CONTEXT ( 3 ) GLOBAL_UNCERTAINTY_ASSIGNED_CONTEXT ( ( #73 ) ) GLOBAL_UNIT_ASSIGNED_CONTEXT ( ( #96, #105, #70 ) ) REPRESENTATION_CONTEXT ( 'NONE', 'WORKASPACE' ) );
#105 =( NAMED_UNIT ( * ) PLANE_ANGLE_UNIT ( ) SI_UNIT ( $, .RADIAN. ) );
#106 =( GEOMETRIC_REPRESENTATION_CONTEXT ( 3 ) GLOBAL_UNCERTAINTY_ASSIGNED_CONTEXT ( ( #98 ) ) GLOBAL_UNIT_ASSIGNED_CONTEXT ( ( #100, #91, #99 ) ) REPRESENTATION_CONTEXT ( 'NONE', 'WORKASPACE' ) );
#107 = CARTESIAN_POINT ( 'NONE',  ( 0.0000000000000000000, 0.0000000000000000000, 4.308132045400366600 ) ) ;
#108 = DIRECTION ( 'NONE',  ( -0.0000000000000000000, -0.0000000000000000000, 1.000000000000000000 ) ) ;
#109 = CARTESIAN_POINT ( 'NONE',  ( 12.69999999999999900, 0.0000000000000000000, 4.308132045400366600 ) ) ;
#110 = LINE ( 'NONE', #109, #80 ) ;
#111 = LINE ( 'NONE', #124, #123 ) ;
#112 = CARTESIAN_POINT ( 'NONE',  ( 12.69999999999999900, 0.0000000000000000000, -1.259999999999999800 ) ) ;
#113 = DIRECTION ( 'NONE',  ( 1.000000000000000000, 0.0000000000000000000, 0.0000000000000000000 ) ) ;
#114 =( LENGTH_UNIT ( ) NAMED_UNIT ( * ) SI_UNIT ( .MILLI., .METRE. ) );
#115 = DIRECTION ( 'NONE',  ( 0.0000000000000000000, 0.0000000000000000000, -1.000000000000000000 ) ) ;
#116 = DIRECTION ( 'NONE',  ( 1.000000000000000000, 0.0000000000000000000, 0.0000000000000000000 ) ) ;
#117 = DIRECTION ( 'NONE',  ( -0.0000000000000000000, -0.0000000000000000000, 1.000000000000000000 ) ) ;
#118 = AXIS2_PLACEMENT_3D ( 'NONE', #136, #117, #116 ) ;
#119 = CIRCLE ( 'NONE', #118, 12.69999999999999900 ) ;
#120 = CIRCLE ( 'NONE', #153, 154.5200000000000400 ) ;
#121 = CARTESIAN_POINT ( 'NONE',  ( 0.0000000000000000000, 4.629164900776995200E-016, -1.259999999999999800 ) ) ;
#122 = DIRECTION ( 'NONE',  ( -0.0000000000000000000, -0.0000000000000000000, 1.000000000000000000 ) ) ;
#123 = VECTOR ( 'NONE', #122, 1000.000000000000000 ) ;
#124 = CARTESIAN_POINT ( 'NONE',  ( -12.69999999999999900, 1.555250069354419100E-015, 4.308132045400366600 ) ) ;
#125 = AXIS2_PLACEMENT_3D ( 'NONE', #121, #134, #113 ) ;
#126 = SURFACE_SIDE_STYLE ('',( #127 ) ) ;
#127 = SURFACE_STYLE_FILL_AREA ( #128 ) ;
#128 = FILL_AREA_STYLE ('',( #129 ) ) ;
#129 = FILL_AREA_STYLE_COLOUR ( '', #130 ) ;
#130 = COLOUR_RGB ( '',0.9568627450980391500, 0.9490196078431372100, 0.9607843137254902200 ) ;
#131 = FACE_OUTER_BOUND ( 'NONE', #11, .T. ) ;
#132 = PLANE ( 'NONE',  #125 ) ;
#133 =( GEOMETRIC_REPRESENTATION_CONTEXT ( 3 ) GLOBAL_UNCERTAINTY_ASSIGNED_CONTEXT ( ( #145 ) ) GLOBAL_UNIT_ASSIGNED_CONTEXT ( ( #114, #135, #146 ) ) REPRESENTATION_CONTEXT ( 'NONE', 'WORKASPACE' ) );
#134 = DIRECTION ( 'NONE',  ( 0.0000000000000000000, -0.0000000000000000000, 1.000000000000000000 ) ) ;
#135 =( NAMED_UNIT ( * ) PLANE_ANGLE_UNIT ( ) SI_UNIT ( $, .RADIAN. ) );
#136 = CARTESIAN_POINT ( 'NONE',  ( 0.0000000000000000000, 0.0000000000000000000, -1.259999999999999800 ) ) ;
#137 = CARTESIAN_POINT ( 'NONE',  ( -1.555250069354422800E-015, -12.70000000000002900, 0.7372090656191268000 ) ) ;
#138 = DIRECTION ( 'NONE',  ( 1.000000000000000000, 0.0000000000000000000, 0.0000000000000000000 ) ) ;
#139 = DIRECTION ( 'NONE',  ( -0.0000000000000000000, -0.0000000000000000000, 1.000000000000000000 ) ) ;
#140 = AXIS2_PLACEMENT_3D ( 'NONE', #141, #139, #138 ) ;
#141 = CARTESIAN_POINT ( 'NONE',  ( 0.0000000000000000000, 0.0000000000000000000, 0.7372090656191160300 ) ) ;
#142 = CIRCLE ( 'NONE', #140, 12.69999999999999900 ) ;
#143 = CARTESIAN_POINT ( 'NONE',  ( 12.69999999999999900, 0.0000000000000000000, 0.7372090656191160300 ) ) ;
#144 = CARTESIAN_POINT ( 'NONE',  ( 0.0000000000000000000, 0.0000000000000000000, -153.2600000000000200 ) ) ;
#145 = UNCERTAINTY_MEASURE_WITH_UNIT (LENGTH_MEASURE( 1.000000000000000100E-005 ), #114, 'distance_accuracy_value', 'NONE');
#146 =( NAMED_UNIT ( * ) SI_UNIT ( $, .STERADIAN. ) SOLID_ANGLE_UNIT ( ) );
#147 = MECHANICAL_DESIGN_GEOMETRIC_PRESENTATION_REPRESENTATION (  '', ( #149 ), #133 ) ;
#148 = PRESENTATION_LAYER_ASSIGNMENT (  '', '', ( #149 ) ) ;
#149 = STYLED_ITEM ( 'NONE', ( #150 ), #35 ) ;
#150 = PRESENTATION_STYLE_ASSIGNMENT (( #151 ) ) ;
#151 = SURFACE_STYLE_USAGE ( .BOTH. , #126 ) ;
#152 = DIRECTION ( 'NONE',  ( 1.000000000000000000, 0.0000000000000000000, 0.0000000000000000000 ) ) ;
#153 = AXIS2_PLACEMENT_3D ( 'NONE', #144, #152, #115 ) ;
#154 = MECHANICAL_DESIGN_GEOMETRIC_PRESENTATION_REPRESENTATION (  '', ( #44 ), #229 ) ;
#155 = DIRECTION ( 'NONE',  ( -1.224606353822377300E-016, -1.000000000000000000, 0.0000000000000000000 ) ) ;
#156 = DIRECTION ( 'NONE',  ( -1.000000000000000000, 1.224606353822377300E-016, 0.0000000000000000000 ) ) ;
#157 = CARTESIAN_POINT ( 'NONE',  ( 0.0000000000000000000, 0.0000000000000000000, -153.2600000000000200 ) ) ;
#158 = AXIS2_PLACEMENT_3D ( 'NONE', #157, #156, #155 ) ;
#159 = AXIS2_PLACEMENT_3D ( 'NONE', #161, #185, #165 ) ;
#160 = SPHERICAL_SURFACE ( 'NONE', #180, 154.5200000000000100 ) ;
#161 = CARTESIAN_POINT ( 'NONE',  ( 0.0000000000000000000, 0.0000000000000000000, -153.2600000000000200 ) ) ;
#162 =( NAMED_UNIT ( * ) SI_UNIT ( $, .STERADIAN. ) SOLID_ANGLE_UNIT ( ) );
#163 = FILL_AREA_STYLE ('',( #178 ) ) ;
#164 =( GEOMETRIC_REPRESENTATION_CONTEXT ( 3 ) GLOBAL_UNCERTAINTY_ASSIGNED_CONTEXT ( ( #188 ) ) GLOBAL_UNIT_ASSIGNED_CONTEXT ( ( #173, #181, #162 ) ) REPRESENTATION_CONTEXT ( 'NONE', 'WORKASPACE' ) );
#165 = DIRECTION ( 'NONE',  ( 0.0000000000000000000, 1.000000000000000000, 0.0000000000000000000 ) ) ;
#166 = CARTESIAN_POINT ( 'NONE',  ( 0.0000000000000000000, 0.0000000000000000000, 0.7372090656191160300 ) ) ;
#167 = AXIS2_PLACEMENT_3D ( 'NONE', #166, #171, #170 ) ;
#168 = CIRCLE ( 'NONE', #167, 12.69999999999999900 ) ;
#169 = CIRCLE ( 'NONE', #158, 154.5200000000000100 ) ;
#170 = DIRECTION ( 'NONE',  ( 1.000000000000000000, 0.0000000000000000000, 0.0000000000000000000 ) ) ;
#171 = DIRECTION ( 'NONE',  ( -0.0000000000000000000, -0.0000000000000000000, 1.000000000000000000 ) ) ;
#172 = PRESENTATION_LAYER_ASSIGNMENT (  '', '', ( #190 ) ) ;
#173 =( LENGTH_UNIT ( ) NAMED_UNIT ( * ) SI_UNIT ( .MILLI., .METRE. ) );
#174 = SURFACE_SIDE_STYLE ('',( #183 ) ) ;
#175 = PRESENTATION_STYLE_ASSIGNMENT (( #176 ) ) ;
#176 = SURFACE_STYLE_USAGE ( .BOTH. , #174 ) ;
#177 = COLOUR_RGB ( '',0.9568627450980391500, 0.9490196078431372100, 0.9607843137254902200 ) ;
#178 = FILL_AREA_STYLE_COLOUR ( '', #177 ) ;
#179 = CARTESIAN_POINT ( 'NONE',  ( 0.0000000000000000000, 0.0000000000000000000, -153.2600000000000200 ) ) ;
#180 = AXIS2_PLACEMENT_3D ( 'NONE', #179, #187, #186 ) ;
#181 =( NAMED_UNIT ( * ) PLANE_ANGLE_UNIT ( ) SI_UNIT ( $, .RADIAN. ) );
#182 = SPHERICAL_SURFACE ( 'NONE', #159, 154.5200000000000100 ) ;
#183 = SURFACE_STYLE_FILL_AREA ( #163 ) ;
#184 = PRESENTATION_LAYER_ASSIGNMENT (  '', '', ( #44 ) ) ;
#185 = DIRECTION ( 'NONE',  ( -1.000000000000000000, 0.0000000000000000000, 0.0000000000000000000 ) ) ;
#186 = DIRECTION ( 'NONE',  ( 0.0000000000000000000, 1.000000000000000000, 0.0000000000000000000 ) ) ;
#187 = DIRECTION ( 'NONE',  ( -1.000000000000000000, 0.0000000000000000000, 0.0000000000000000000 ) ) ;
#188 = UNCERTAINTY_MEASURE_WITH_UNIT (LENGTH_MEASURE( 1.000000000000000100E-005 ), #173, 'distance_accuracy_value', 'NONE');
#189 = FACE_OUTER_BOUND ( 'NONE', #1, .T. ) ;
#190 = STYLED_ITEM ( 'NONE', ( #175 ), #37 ) ;
#191 = MECHANICAL_DESIGN_GEOMETRIC_PRESENTATION_REPRESENTATION (  '', ( #190 ), #164 ) ;
#192 =( LENGTH_UNIT ( ) NAMED_UNIT ( * ) SI_UNIT ( .MILLI., .METRE. ) );
#193 =( NAMED_UNIT ( * ) PLANE_ANGLE_UNIT ( ) SI_UNIT ( $, .RADIAN. ) );
#194 = AXIS2_PLACEMENT_3D ( 'NONE', #227, #223, #214 ) ;
#195 = CIRCLE ( 'NONE', #194, 12.69999999999999900 ) ;
#196 = PRESENTATION_LAYER_ASSIGNMENT (  '', '', ( #224 ) ) ;
#197 =( NAMED_UNIT ( * ) SI_UNIT ( $, .STERADIAN. ) SOLID_ANGLE_UNIT ( ) );
#198 = UNCERTAINTY_MEASURE_WITH_UNIT (LENGTH_MEASURE( 1.000000000000000100E-005 ), #192, 'distance_accuracy_value', 'NONE');
#199 = SURFACE_STYLE_FILL_AREA ( #207 ) ;
#200 = AXIS2_PLACEMENT_3D ( 'NONE', #203, #218, #217 ) ;
#201 = CIRCLE ( 'NONE', #200, 12.69999999999999900 ) ;
#202 = SURFACE_STYLE_USAGE ( .BOTH. , #213 ) ;
#203 = CARTESIAN_POINT ( 'NONE',  ( 0.0000000000000000000, 0.0000000000000000000, -1.259999999999999800 ) ) ;
#204 = UNCERTAINTY_MEASURE_WITH_UNIT (LENGTH_MEASURE( 1.000000000000000100E-005 ), #215, 'distance_accuracy_value', 'NONE');
#205 =( NAMED_UNIT ( * ) PLANE_ANGLE_UNIT ( ) SI_UNIT ( $, .RADIAN. ) );
#206 = FILL_AREA_STYLE_COLOUR ( '', #219 ) ;
#207 = FILL_AREA_STYLE ('',( #206 ) ) ;
#208 = FILL_AREA_STYLE ('',( #209 ) ) ;
#209 = FILL_AREA_STYLE_COLOUR ( '', #210 ) ;
#210 = COLOUR_RGB ( '',0.7960784313725489700, 0.8235294117647058400, 0.9372549019607843100 ) ;
#211 = CARTESIAN_POINT ( 'NONE',  ( -12.69999999999999900, 1.555250069354419100E-015, 0.7372090656191160300 ) ) ;
#212 =( NAMED_UNIT ( * ) SI_UNIT ( $, .STERADIAN. ) SOLID_ANGLE_UNIT ( ) );
#213 = SURFACE_SIDE_STYLE ('',( #199 ) ) ;
#214 = DIRECTION ( 'NONE',  ( 1.000000000000000000, 0.0000000000000000000, 0.0000000000000000000 ) ) ;
#215 =( LENGTH_UNIT ( ) NAMED_UNIT ( * ) SI_UNIT ( .MILLI., .METRE. ) );
#216 = MECHANICAL_DESIGN_GEOMETRIC_PRESENTATION_REPRESENTATION (  '', ( #224 ), #221 ) ;
#217 = DIRECTION ( 'NONE',  ( 1.000000000000000000, 0.0000000000000000000, 0.0000000000000000000 ) ) ;
#218 = DIRECTION ( 'NONE',  ( -0.0000000000000000000, -0.0000000000000000000, 1.000000000000000000 ) ) ;
#219 = COLOUR_RGB ( '',0.7960784313725489700, 0.8235294117647058400, 0.9372549019607843100 ) ;
#220 = ADVANCED_BREP_SHAPE_REPRESENTATION ( '4501-E0W', ( #255, #236 ), #225 ) ;
#221 =( GEOMETRIC_REPRESENTATION_CONTEXT ( 3 ) GLOBAL_UNCERTAINTY_ASSIGNED_CONTEXT ( ( #198 ) ) GLOBAL_UNIT_ASSIGNED_CONTEXT ( ( #192, #193, #197 ) ) REPRESENTATION_CONTEXT ( 'NONE', 'WORKASPACE' ) );
#222 = CARTESIAN_POINT ( 'NONE',  ( 0.0000000000000000000, 9.461308689631688100E-015, 1.260000000000011100 ) ) ;
#223 = DIRECTION ( 'NONE',  ( -0.0000000000000000000, -0.0000000000000000000, 1.000000000000000000 ) ) ;
#224 = STYLED_ITEM ( 'NONE', ( #226 ), #255 ) ;
#225 =( GEOMETRIC_REPRESENTATION_CONTEXT ( 3 ) GLOBAL_UNCERTAINTY_ASSIGNED_CONTEXT ( ( #204 ) ) GLOBAL_UNIT_ASSIGNED_CONTEXT ( ( #215, #205, #212 ) ) REPRESENTATION_CONTEXT ( 'NONE', 'WORKASPACE' ) );
#226 = PRESENTATION_STYLE_ASSIGNMENT (( #202 ) ) ;
#227 = CARTESIAN_POINT ( 'NONE',  ( 0.0000000000000000000, 0.0000000000000000000, 0.7372090656191160300 ) ) ;
#228 = CARTESIAN_POINT ( 'NONE',  ( 0.0000000000000000000, 12.70000000000002900, 0.7372090656191268000 ) ) ;
#229 =( GEOMETRIC_REPRESENTATION_CONTEXT ( 3 ) GLOBAL_UNCERTAINTY_ASSIGNED_CONTEXT ( ( #232 ) ) GLOBAL_UNIT_ASSIGNED_CONTEXT ( ( #231, #230, #233 ) ) REPRESENTATION_CONTEXT ( 'NONE', 'WORKASPACE' ) );
#230 =( NAMED_UNIT ( * ) PLANE_ANGLE_UNIT ( ) SI_UNIT ( $, .RADIAN. ) );
#231 =( LENGTH_UNIT ( ) NAMED_UNIT ( * ) SI_UNIT ( .MILLI., .METRE. ) );
#232 = UNCERTAINTY_MEASURE_WITH_UNIT (LENGTH_MEASURE( 1.000000000000000100E-005 ), #231, 'distance_accuracy_value', 'NONE');
#233 =( NAMED_UNIT ( * ) SI_UNIT ( $, .STERADIAN. ) SOLID_ANGLE_UNIT ( ) );
#234 = DIRECTION ( 'NONE',  ( 1.000000000000000000, 0.0000000000000000000, 0.0000000000000000000 ) ) ;
#235 = DIRECTION ( 'NONE',  ( 0.0000000000000000000, 0.0000000000000000000, 1.000000000000000000 ) ) ;
#236 = AXIS2_PLACEMENT_3D ( 'NONE', #237, #235, #234 ) ;
#237 = CARTESIAN_POINT ( 'NONE',  ( 0.0000000000000000000, 0.0000000000000000000, 0.0000000000000000000 ) ) ;
#238 = SHAPE_DEFINITION_REPRESENTATION ( #244, #220 ) ;
#239 = PRODUCT_DEFINITION ( 'UNKNOWN', '', #246, #240 ) ;
#240 = PRODUCT_DEFINITION_CONTEXT ( 'detailed design', #243, 'design' ) ;
#241 = APPLICATION_PROTOCOL_DEFINITION ( 'draft international standard', 'automotive_design', 1998, #243 ) ;
#242 = APPLICATION_CONTEXT ( 'automotive_design' ) ;
#243 = APPLICATION_CONTEXT ( 'automotive_design' ) ;
#244 = PRODUCT_DEFINITION_SHAPE ( 'NONE', 'NONE',  #239 ) ;
#245 = PRODUCT_RELATED_PRODUCT_CATEGORY ( 'part', '', ( #247 ) ) ;
#246 = PRODUCT_DEFINITION_FORMATION_WITH_SPECIFIED_SOURCE ( 'ANY', '', #247, .NOT_KNOWN. ) ;
#247 = PRODUCT ( '4501-E0W', '4501-E0W', '', ( #248 ) ) ;
#248 = PRODUCT_CONTEXT ( 'NONE', #242, 'mechanical' ) ;
#249 = APPLICATION_PROTOCOL_DEFINITION ( 'draft international standard', 'automotive_design', 1998, #242 ) ;
#250 = ORIENTED_EDGE ( 'NONE', *, *, #251, .T. ) ;
#251 = EDGE_CURVE ( 'NONE', #260, #32, #168, .T. ) ;
#252 = ORIENTED_EDGE ( 'NONE', *, *, #253, .T. ) ;
#253 = EDGE_CURVE ( 'NONE', #32, #254, #169, .T. ) ;
#254 = VERTEX_POINT ( 'NONE', #222 ) ;
#255 = MANIFOLD_SOLID_BREP ( 'NONE', #34 ) ;
#256 = EDGE_CURVE ( 'NONE', #257, #260, #195, .T. ) ;
#257 = VERTEX_POINT ( 'NONE', #228 ) ;
#258 = ORIENTED_EDGE ( 'NONE', *, *, #259, .T. ) ;
#259 = EDGE_CURVE ( 'NONE', #22, #10, #201, .T. ) ;
#260 = VERTEX_POINT ( 'NONE', #211 ) ;
#261 = EDGE_LOOP ( 'NONE', ( #258, #18, #19, #29, #15 ) ) ;
ENDSEC;
END-ISO-10303-21;
