ISO-10303-21;
HEADER;
FILE_DESCRIPTION (( 'STEP AP203' ),
    '1' );
FILE_NAME ('34602_36953.step',
    '2017-08-24T13:11:07',
    ( '' ),
    ( '' ),
    'SwSTEP 2.0',
    'SolidWorks 2016',
    '' );
FILE_SCHEMA (( 'CONFIG_CONTROL_DESIGN' ));
ENDSEC;

DATA;
#1 = CLOSED_SHELL ( 'NONE', ( #140, #27, #81, #26 ) ) ;
#2 = EDGE_LOOP ( 'NONE', ( #96, #84, #77, #150 ) ) ;
#3 = APPROVAL ( #142, 'UNSPECIFIED' ) ;
#4 = VERTEX_POINT ( 'NONE', #43 ) ;
#5 = DIRECTION ( 'NONE',  ( -0.0000000000000000000, -0.0000000000000000000, -1.000000000000000000 ) ) ;
#6 = DIRECTION ( 'NONE',  ( 1.000000000000000000, 0.0000000000000000000, 0.0000000000000000000 ) ) ;
#7 = EDGE_CURVE ( 'NONE', #4, #129, #31, .T. ) ;
#8 = DIRECTION ( 'NONE',  ( 1.000000000000000000, 0.0000000000000000000, 0.0000000000000000000 ) ) ;
#9 = APPROVAL_DATE_TIME ( #117, #3 ) ;
#10 = APPROVAL_STATUS ( 'not_yet_approved' ) ;
#11 = CALENDAR_DATE ( 2017, 24, 8 ) ;
#12 = ORIENTED_EDGE ( 'NONE', *, *, #107, .F. ) ;
#13 = PERSON_AND_ORGANIZATION ( #112, #94 ) ;
#14 = COORDINATED_UNIVERSAL_TIME_OFFSET ( 5, 0, .BEHIND. ) ;
#15 = AXIS2_PLACEMENT_3D ( 'NONE', #37, #158, #62 ) ;
#16 = FACE_OUTER_BOUND ( 'NONE', #123, .T. ) ;
#17 = PRODUCT_DEFINITION_SHAPE ( 'NONE', 'NONE',  #45 ) ;
#18 = AXIS2_PLACEMENT_3D ( 'NONE', #126, #147, #78 ) ;
#19 = DIRECTION ( 'NONE',  ( 1.000000000000000000, 0.0000000000000000000, -0.0000000000000000000 ) ) ;
#20 = CARTESIAN_POINT ( 'NONE',  ( 25.00000000000000000, 3.061616997868383000E-015, 0.0000000000000000000 ) ) ;
#21 = COORDINATED_UNIVERSAL_TIME_OFFSET ( 5, 0, .BEHIND. ) ;
#22 = CIRCLE ( 'NONE', #67, 25.00000000000000000 ) ;
#23 = DIRECTION ( 'NONE',  ( 1.000000000000000000, 0.0000000000000000000, 0.0000000000000000000 ) ) ;
#24 = DIRECTION ( 'NONE',  ( 0.0000000000000000000, 0.0000000000000000000, 1.000000000000000000 ) ) ;
#25 = PERSON_AND_ORGANIZATION_ROLE ( 'creator' ) ;
#26 = ADVANCED_FACE ( 'NONE', ( #152 ), #156, .F. ) ;
#27 = ADVANCED_FACE ( 'NONE', ( #141 ), #71, .T. ) ;
#28 = SECURITY_CLASSIFICATION ( '', '', #63 ) ;
#29 = LINE ( 'NONE', #47, #58 ) ;
#30 = CC_DESIGN_APPROVAL ( #3, ( #28 ) ) ;
#31 = CIRCLE ( 'NONE', #44, 25.00000000000000000 ) ;
#32 = AXIS2_PLACEMENT_3D ( 'NONE', #48, #105, #23 ) ;
#33 = PERSON_AND_ORGANIZATION ( #112, #94 ) ;
#34 = APPROVAL_ROLE ( '' ) ;
#35 = APPLICATION_CONTEXT ( 'configuration controlled 3d designs of mechanical parts and assemblies' ) ;
#36 = PERSON_AND_ORGANIZATION_ROLE ( 'design_owner' ) ;
#37 = CARTESIAN_POINT ( 'NONE',  ( 0.0000000000000000000, 0.0000000000000000000, 6.000000000000000000 ) ) ;
#38 = CC_DESIGN_PERSON_AND_ORGANIZATION_ASSIGNMENT ( #119, #36, ( #131 ) ) ;
#39 = EDGE_LOOP ( 'NONE', ( #145, #168, #114, #12 ) ) ;
#40 = DATE_TIME_ROLE ( 'classification_date' ) ;
#41 = CC_DESIGN_PERSON_AND_ORGANIZATION_ASSIGNMENT ( #69, #92, ( #28 ) ) ;
#42 = PERSON_AND_ORGANIZATION ( #112, #94 ) ;
#43 = CARTESIAN_POINT ( 'NONE',  ( -25.00000000000000000, 0.0000000000000000000, 0.0000000000000000000 ) ) ;
#44 = AXIS2_PLACEMENT_3D ( 'NONE', #75, #134, #6 ) ;
#45 = PRODUCT_DEFINITION ( 'UNKNOWN', '', #93, #83 ) ;
#46 = DATE_AND_TIME ( #82, #125 ) ;
#47 = CARTESIAN_POINT ( 'NONE',  ( -25.00000000000000000, 0.0000000000000000000, 6.000000000000000000 ) ) ;
#48 = CARTESIAN_POINT ( 'NONE',  ( 0.0000000000000000000, 0.0000000000000000000, 0.0000000000000000000 ) ) ;
#49 = CARTESIAN_POINT ( 'NONE',  ( -25.00000000000000000, 0.0000000000000000000, 6.000000000000000000 ) ) ;
#50 = APPROVAL_PERSON_ORGANIZATION ( #88, #128, #109 ) ;
#51 = PERSON_AND_ORGANIZATION_ROLE ( 'creator' ) ;
#52 = DIRECTION ( 'NONE',  ( 0.0000000000000000000, 0.0000000000000000000, 1.000000000000000000 ) ) ;
#53 = LOCAL_TIME ( 9, 11, 7.000000000000000000, #120 ) ;
#54 = CC_DESIGN_APPROVAL ( #115, ( #45 ) ) ;
#55 = ORIENTED_EDGE ( 'NONE', *, *, #157, .F. ) ;
#56 = ADVANCED_BREP_SHAPE_REPRESENTATION ( '34602_36953', ( #166, #32 ), #100 ) ;
#57 = AXIS2_PLACEMENT_3D ( 'NONE', #118, #89, #19 ) ;
#58 = VECTOR ( 'NONE', #103, 1000.000000000000000 ) ;
#59 =( LENGTH_UNIT ( ) NAMED_UNIT ( * ) SI_UNIT ( .MILLI., .METRE. ) );
#60 = LOCAL_TIME ( 9, 11, 7.000000000000000000, #14 ) ;
#61 = CARTESIAN_POINT ( 'NONE',  ( 0.0000000000000000000, 0.0000000000000000000, 0.0000000000000000000 ) ) ;
#62 = DIRECTION ( 'NONE',  ( -1.000000000000000000, 0.0000000000000000000, 0.0000000000000000000 ) ) ;
#63 = SECURITY_CLASSIFICATION_LEVEL ( 'unclassified' ) ;
#64 = CC_DESIGN_PERSON_AND_ORGANIZATION_ASSIGNMENT ( #33, #51, ( #45 ) ) ;
#65 = ORIENTED_EDGE ( 'NONE', *, *, #138, .T. ) ;
#66 = LOCAL_TIME ( 9, 11, 7.000000000000000000, #91 ) ;
#67 = AXIS2_PLACEMENT_3D ( 'NONE', #61, #52, #159 ) ;
#68 = FACE_OUTER_BOUND ( 'NONE', #39, .T. ) ;
#69 = PERSON_AND_ORGANIZATION ( #112, #94 ) ;
#70 = AXIS2_PLACEMENT_3D ( 'NONE', #90, #24, #8 ) ;
#71 = CYLINDRICAL_SURFACE ( 'NONE', #169, 25.00000000000000000 ) ;
#72 = APPROVAL_PERSON_ORGANIZATION ( #104, #3, #163 ) ;
#73 = DIRECTION ( 'NONE',  ( 1.000000000000000000, 0.0000000000000000000, -0.0000000000000000000 ) ) ;
#74 = UNCERTAINTY_MEASURE_WITH_UNIT (LENGTH_MEASURE( 1.000000000000000100E-005 ), #59, 'distance_accuracy_value', 'NONE');
#75 = CARTESIAN_POINT ( 'NONE',  ( 0.0000000000000000000, 0.0000000000000000000, 0.0000000000000000000 ) ) ;
#76 = CC_DESIGN_DATE_AND_TIME_ASSIGNMENT ( #165, #149, ( #45 ) ) ;
#77 = ORIENTED_EDGE ( 'NONE', *, *, #107, .T. ) ;
#78 = DIRECTION ( 'NONE',  ( 1.000000000000000000, 0.0000000000000000000, 0.0000000000000000000 ) ) ;
#79 = CIRCLE ( 'NONE', #18, 25.00000000000000000 ) ;
#80 = APPLICATION_CONTEXT ( 'configuration controlled 3d designs of mechanical parts and assemblies' ) ;
#81 = ADVANCED_FACE ( 'NONE', ( #16 ), #99, .T. ) ;
#82 = CALENDAR_DATE ( 2017, 24, 8 ) ;
#83 = DESIGN_CONTEXT ( 'detailed design', #80, 'design' ) ;
#84 = ORIENTED_EDGE ( 'NONE', *, *, #138, .F. ) ;
#85 = EDGE_CURVE ( 'NONE', #135, #129, #102, .T. ) ;
#86 = EDGE_LOOP ( 'NONE', ( #95, #55 ) ) ;
#87 = DATE_AND_TIME ( #116, #155 ) ;
#88 = PERSON_AND_ORGANIZATION ( #112, #94 ) ;
#89 = DIRECTION ( 'NONE',  ( 0.0000000000000000000, 0.0000000000000000000, 1.000000000000000000 ) ) ;
#90 = CARTESIAN_POINT ( 'NONE',  ( 0.0000000000000000000, 0.0000000000000000000, 6.000000000000000000 ) ) ;
#91 = COORDINATED_UNIVERSAL_TIME_OFFSET ( 5, 0, .BEHIND. ) ;
#92 = PERSON_AND_ORGANIZATION_ROLE ( 'classification_officer' ) ;
#93 = PRODUCT_DEFINITION_FORMATION_WITH_SPECIFIED_SOURCE ( 'ANY', '', #131, .NOT_KNOWN. ) ;
#94 = ORGANIZATION ( 'UNSPECIFIED', 'UNSPECIFIED', '' ) ;
#95 = ORIENTED_EDGE ( 'NONE', *, *, #7, .F. ) ;
#96 = ORIENTED_EDGE ( 'NONE', *, *, #85, .F. ) ;
#97 = EDGE_CURVE ( 'NONE', #135, #132, #79, .T. ) ;
#98 = DIRECTION ( 'NONE',  ( -1.000000000000000000, 0.0000000000000000000, 0.0000000000000000000 ) ) ;
#99 = PLANE ( 'NONE',  #57 ) ;
#100 =( GEOMETRIC_REPRESENTATION_CONTEXT ( 3 ) GLOBAL_UNCERTAINTY_ASSIGNED_CONTEXT ( ( #74 ) ) GLOBAL_UNIT_ASSIGNED_CONTEXT ( ( #59, #121, #124 ) ) REPRESENTATION_CONTEXT ( 'NONE', 'WORKASPACE' ) );
#101 = DIRECTION ( 'NONE',  ( 0.0000000000000000000, 0.0000000000000000000, 1.000000000000000000 ) ) ;
#102 = LINE ( 'NONE', #136, #164 ) ;
#103 = DIRECTION ( 'NONE',  ( -0.0000000000000000000, -0.0000000000000000000, -1.000000000000000000 ) ) ;
#104 = PERSON_AND_ORGANIZATION ( #112, #94 ) ;
#105 = DIRECTION ( 'NONE',  ( 0.0000000000000000000, 0.0000000000000000000, 1.000000000000000000 ) ) ;
#106 = DIRECTION ( 'NONE',  ( -0.0000000000000000000, -0.0000000000000000000, -1.000000000000000000 ) ) ;
#107 = EDGE_CURVE ( 'NONE', #132, #4, #29, .T. ) ;
#108 = CIRCLE ( 'NONE', #70, 25.00000000000000000 ) ;
#109 = APPROVAL_ROLE ( '' ) ;
#110 = CYLINDRICAL_SURFACE ( 'NONE', #15, 25.00000000000000000 ) ;
#111 = CALENDAR_DATE ( 2017, 24, 8 ) ;
#112 = PERSON ( 'UNSPECIFIED', 'UNSPECIFIED', 'UNSPECIFIED', ('UNSPECIFIED'), ('UNSPECIFIED'), ('UNSPECIFIED') ) ;
#113 = CC_DESIGN_DATE_AND_TIME_ASSIGNMENT ( #133, #40, ( #28 ) ) ;
#114 = ORIENTED_EDGE ( 'NONE', *, *, #157, .T. ) ;
#115 = APPROVAL ( #10, 'UNSPECIFIED' ) ;
#116 = CALENDAR_DATE ( 2017, 24, 8 ) ;
#117 = DATE_AND_TIME ( #11, #66 ) ;
#118 = CARTESIAN_POINT ( 'NONE',  ( 0.0000000000000000000, 0.0000000000000000000, 6.000000000000000000 ) ) ;
#119 = PERSON_AND_ORGANIZATION ( #112, #94 ) ;
#120 = COORDINATED_UNIVERSAL_TIME_OFFSET ( 5, 0, .BEHIND. ) ;
#121 =( NAMED_UNIT ( * ) PLANE_ANGLE_UNIT ( ) SI_UNIT ( $, .RADIAN. ) );
#122 = CC_DESIGN_SECURITY_CLASSIFICATION ( #28, ( #93 ) ) ;
#123 = EDGE_LOOP ( 'NONE', ( #65, #127 ) ) ;
#124 =( NAMED_UNIT ( * ) SI_UNIT ( $, .STERADIAN. ) SOLID_ANGLE_UNIT ( ) );
#125 = LOCAL_TIME ( 9, 11, 7.000000000000000000, #154 ) ;
#126 = CARTESIAN_POINT ( 'NONE',  ( 0.0000000000000000000, 0.0000000000000000000, 6.000000000000000000 ) ) ;
#127 = ORIENTED_EDGE ( 'NONE', *, *, #97, .T. ) ;
#128 = APPROVAL ( #171, 'UNSPECIFIED' ) ;
#129 = VERTEX_POINT ( 'NONE', #20 ) ;
#130 = APPROVAL_DATE_TIME ( #87, #115 ) ;
#131 = PRODUCT ( '34602_36953', '34602_36953', '', ( #148 ) ) ;
#132 = VERTEX_POINT ( 'NONE', #49 ) ;
#133 = DATE_AND_TIME ( #175, #53 ) ;
#134 = DIRECTION ( 'NONE',  ( 0.0000000000000000000, 0.0000000000000000000, 1.000000000000000000 ) ) ;
#135 = VERTEX_POINT ( 'NONE', #172 ) ;
#136 = CARTESIAN_POINT ( 'NONE',  ( 25.00000000000000000, 3.061616997868383000E-015, 6.000000000000000000 ) ) ;
#137 = APPLICATION_PROTOCOL_DEFINITION ( 'international standard', 'config_control_design', 1994, #80 ) ;
#138 = EDGE_CURVE ( 'NONE', #132, #135, #108, .T. ) ;
#139 = APPLICATION_PROTOCOL_DEFINITION ( 'international standard', 'config_control_design', 1994, #35 ) ;
#140 = ADVANCED_FACE ( 'NONE', ( #68 ), #110, .T. ) ;
#141 = FACE_OUTER_BOUND ( 'NONE', #2, .T. ) ;
#142 = APPROVAL_STATUS ( 'not_yet_approved' ) ;
#143 = PRODUCT_RELATED_PRODUCT_CATEGORY ( 'detail', '', ( #131 ) ) ;
#144 = APPROVAL_PERSON_ORGANIZATION ( #173, #115, #34 ) ;
#145 = ORIENTED_EDGE ( 'NONE', *, *, #97, .F. ) ;
#146 = CARTESIAN_POINT ( 'NONE',  ( 0.0000000000000000000, 0.0000000000000000000, 0.0000000000000000000 ) ) ;
#147 = DIRECTION ( 'NONE',  ( 0.0000000000000000000, 0.0000000000000000000, 1.000000000000000000 ) ) ;
#148 = MECHANICAL_CONTEXT ( 'NONE', #35, 'mechanical' ) ;
#149 = DATE_TIME_ROLE ( 'creation_date' ) ;
#150 = ORIENTED_EDGE ( 'NONE', *, *, #7, .T. ) ;
#151 = CC_DESIGN_APPROVAL ( #128, ( #93 ) ) ;
#152 = FACE_OUTER_BOUND ( 'NONE', #86, .T. ) ;
#153 = SHAPE_DEFINITION_REPRESENTATION ( #17, #56 ) ;
#154 = COORDINATED_UNIVERSAL_TIME_OFFSET ( 5, 0, .BEHIND. ) ;
#155 = LOCAL_TIME ( 9, 11, 7.000000000000000000, #21 ) ;
#156 = PLANE ( 'NONE',  #160 ) ;
#157 = EDGE_CURVE ( 'NONE', #129, #4, #22, .T. ) ;
#158 = DIRECTION ( 'NONE',  ( -0.0000000000000000000, -0.0000000000000000000, -1.000000000000000000 ) ) ;
#159 = DIRECTION ( 'NONE',  ( 1.000000000000000000, 0.0000000000000000000, 0.0000000000000000000 ) ) ;
#160 = AXIS2_PLACEMENT_3D ( 'NONE', #146, #101, #73 ) ;
#161 = PERSON_AND_ORGANIZATION_ROLE ( 'design_supplier' ) ;
#162 = APPROVAL_DATE_TIME ( #46, #128 ) ;
#163 = APPROVAL_ROLE ( '' ) ;
#164 = VECTOR ( 'NONE', #106, 1000.000000000000000 ) ;
#165 = DATE_AND_TIME ( #111, #60 ) ;
#166 = MANIFOLD_SOLID_BREP ( 'Boss-Extrude1', #1 ) ;
#167 = CC_DESIGN_PERSON_AND_ORGANIZATION_ASSIGNMENT ( #13, #25, ( #93 ) ) ;
#168 = ORIENTED_EDGE ( 'NONE', *, *, #85, .T. ) ;
#169 = AXIS2_PLACEMENT_3D ( 'NONE', #170, #5, #98 ) ;
#170 = CARTESIAN_POINT ( 'NONE',  ( 0.0000000000000000000, 0.0000000000000000000, 6.000000000000000000 ) ) ;
#171 = APPROVAL_STATUS ( 'not_yet_approved' ) ;
#172 = CARTESIAN_POINT ( 'NONE',  ( 25.00000000000000000, 3.061616997868383000E-015, 6.000000000000000000 ) ) ;
#173 = PERSON_AND_ORGANIZATION ( #112, #94 ) ;
#174 = CC_DESIGN_PERSON_AND_ORGANIZATION_ASSIGNMENT ( #42, #161, ( #93 ) ) ;
#175 = CALENDAR_DATE ( 2017, 24, 8 ) ;
ENDSEC;
END-ISO-10303-21;
