ISO-10303-21;
HEADER;
FILE_DESCRIPTION (( 'STEP AP203' ),
    '1' );
FILE_NAME ('36992_36992.step',
    '2017-09-06T15:55:42',
    ( '' ),
    ( '' ),
    'SwSTEP 2.0',
    'SolidWorks 2016',
    '' );
FILE_SCHEMA (( 'CONFIG_CONTROL_DESIGN' ));
ENDSEC;

DATA;
#1 = DIRECTION ( 'NONE',  ( 0.0000000000000000000, 0.0000000000000000000, 1.000000000000000000 ) ) ;
#2 = CARTESIAN_POINT ( 'NONE',  ( 12.50000000000000000, 1.530808498934191500E-015, 1.000000000000000000 ) ) ;
#3 = ADVANCED_FACE ( 'NONE', ( #23 ), #147, .T. ) ;
#4 = DIRECTION ( 'NONE',  ( 1.000000000000000000, 0.0000000000000000000, 0.0000000000000000000 ) ) ;
#5 = VECTOR ( 'NONE', #72, 1000.000000000000000 ) ;
#6 = CARTESIAN_POINT ( 'NONE',  ( 0.0000000000000000000, 0.0000000000000000000, -1.000000000000000000 ) ) ;
#7 = PERSON_AND_ORGANIZATION_ROLE ( 'creator' ) ;
#8 = APPROVAL_PERSON_ORGANIZATION ( #75, #82, #52 ) ;
#9 = APPLICATION_PROTOCOL_DEFINITION ( 'international standard', 'config_control_design', 1994, #64 ) ;
#10 = AXIS2_PLACEMENT_3D ( 'NONE', #44, #60, #165 ) ;
#11 = CC_DESIGN_PERSON_AND_ORGANIZATION_ASSIGNMENT ( #133, #21, ( #118 ) ) ;
#12 = ORIENTED_EDGE ( 'NONE', *, *, #39, .F. ) ;
#13 = DIRECTION ( 'NONE',  ( 1.000000000000000000, 0.0000000000000000000, -0.0000000000000000000 ) ) ;
#14 = LOCAL_TIME ( 11, 55, 42.00000000000000000, #94 ) ;
#15 = CIRCLE ( 'NONE', #85, 12.50000000000000000 ) ;
#16 = DIRECTION ( 'NONE',  ( 0.0000000000000000000, 0.0000000000000000000, 1.000000000000000000 ) ) ;
#17 = APPLICATION_PROTOCOL_DEFINITION ( 'international standard', 'config_control_design', 1994, #104 ) ;
#18 = ADVANCED_FACE ( 'NONE', ( #131 ), #62, .T. ) ;
#19 = DIRECTION ( 'NONE',  ( 0.0000000000000000000, 0.0000000000000000000, 1.000000000000000000 ) ) ;
#20 = CC_DESIGN_PERSON_AND_ORGANIZATION_ASSIGNMENT ( #148, #107, ( #92 ) ) ;
#21 = PERSON_AND_ORGANIZATION_ROLE ( 'classification_officer' ) ;
#22 = PERSON_AND_ORGANIZATION ( #47, #110 ) ;
#23 = FACE_OUTER_BOUND ( 'NONE', #59, .T. ) ;
#24 = CC_DESIGN_DATE_AND_TIME_ASSIGNMENT ( #164, #91, ( #135 ) ) ;
#25 = CALENDAR_DATE ( 2017, 6, 9 ) ;
#26 = AXIS2_PLACEMENT_3D ( 'NONE', #163, #1, #167 ) ;
#27 = ADVANCED_BREP_SHAPE_REPRESENTATION ( '36992_36992', ( #136, #28 ), #43 ) ;
#28 = AXIS2_PLACEMENT_3D ( 'NONE', #89, #16, #4 ) ;
#29 = DIRECTION ( 'NONE',  ( 0.0000000000000000000, 0.0000000000000000000, 1.000000000000000000 ) ) ;
#30 = VERTEX_POINT ( 'NONE', #2 ) ;
#31 = CARTESIAN_POINT ( 'NONE',  ( -12.50000000000000000, 0.0000000000000000000, -1.000000000000000000 ) ) ;
#32 = CARTESIAN_POINT ( 'NONE',  ( 0.0000000000000000000, 0.0000000000000000000, 1.000000000000000000 ) ) ;
#33 = DIRECTION ( 'NONE',  ( -0.0000000000000000000, -0.0000000000000000000, -1.000000000000000000 ) ) ;
#34 = PLANE ( 'NONE',  #26 ) ;
#35 = CALENDAR_DATE ( 2017, 6, 9 ) ;
#36 = CLOSED_SHELL ( 'NONE', ( #3, #128, #18, #117 ) ) ;
#37 = CC_DESIGN_PERSON_AND_ORGANIZATION_ASSIGNMENT ( #113, #7, ( #135 ) ) ;
#38 = DATE_AND_TIME ( #35, #14 ) ;
#39 = EDGE_CURVE ( 'NONE', #138, #119, #15, .T. ) ;
#40 = LINE ( 'NONE', #129, #5 ) ;
#41 = ORIENTED_EDGE ( 'NONE', *, *, #53, .T. ) ;
#42 = DIRECTION ( 'NONE',  ( 0.0000000000000000000, 0.0000000000000000000, 1.000000000000000000 ) ) ;
#43 =( GEOMETRIC_REPRESENTATION_CONTEXT ( 3 ) GLOBAL_UNCERTAINTY_ASSIGNED_CONTEXT ( ( #58 ) ) GLOBAL_UNIT_ASSIGNED_CONTEXT ( ( #57, #160, #166 ) ) REPRESENTATION_CONTEXT ( 'NONE', 'WORKASPACE' ) );
#44 = CARTESIAN_POINT ( 'NONE',  ( 0.0000000000000000000, 0.0000000000000000000, -1.000000000000000000 ) ) ;
#45 = CARTESIAN_POINT ( 'NONE',  ( 0.0000000000000000000, 0.0000000000000000000, 1.000000000000000000 ) ) ;
#46 = CIRCLE ( 'NONE', #124, 12.50000000000000000 ) ;
#47 = PERSON ( 'UNSPECIFIED', 'UNSPECIFIED', 'UNSPECIFIED', ('UNSPECIFIED'), ('UNSPECIFIED'), ('UNSPECIFIED') ) ;
#48 = CARTESIAN_POINT ( 'NONE',  ( 0.0000000000000000000, 0.0000000000000000000, 1.000000000000000000 ) ) ;
#49 = CC_DESIGN_PERSON_AND_ORGANIZATION_ASSIGNMENT ( #170, #93, ( #161 ) ) ;
#50 = FACE_OUTER_BOUND ( 'NONE', #70, .T. ) ;
#51 = APPROVAL_ROLE ( '' ) ;
#52 = APPROVAL_ROLE ( '' ) ;
#53 = EDGE_CURVE ( 'NONE', #30, #98, #46, .T. ) ;
#54 = DATE_AND_TIME ( #171, #162 ) ;
#55 = DESIGN_CONTEXT ( 'detailed design', #64, 'design' ) ;
#56 = ORIENTED_EDGE ( 'NONE', *, *, #79, .F. ) ;
#57 =( LENGTH_UNIT ( ) NAMED_UNIT ( * ) SI_UNIT ( .MILLI., .METRE. ) );
#58 = UNCERTAINTY_MEASURE_WITH_UNIT (LENGTH_MEASURE( 1.000000000000000100E-005 ), #57, 'distance_accuracy_value', 'NONE');
#59 = EDGE_LOOP ( 'NONE', ( #114, #137, #67, #168 ) ) ;
#60 = DIRECTION ( 'NONE',  ( 0.0000000000000000000, 0.0000000000000000000, 1.000000000000000000 ) ) ;
#61 = DIRECTION ( 'NONE',  ( 0.0000000000000000000, 0.0000000000000000000, 1.000000000000000000 ) ) ;
#62 = PLANE ( 'NONE',  #108 ) ;
#63 = APPROVAL_DATE_TIME ( #38, #77 ) ;
#64 = APPLICATION_CONTEXT ( 'configuration controlled 3d designs of mechanical parts and assemblies' ) ;
#65 = COORDINATED_UNIVERSAL_TIME_OFFSET ( 5, 0, .BEHIND. ) ;
#66 = AXIS2_PLACEMENT_3D ( 'NONE', #48, #150, #126 ) ;
#67 = ORIENTED_EDGE ( 'NONE', *, *, #39, .T. ) ;
#68 = CC_DESIGN_APPROVAL ( #77, ( #92 ) ) ;
#69 = ORIENTED_EDGE ( 'NONE', *, *, #90, .F. ) ;
#70 = EDGE_LOOP ( 'NONE', ( #56, #69, #172, #146 ) ) ;
#71 = DIRECTION ( 'NONE',  ( 1.000000000000000000, 0.0000000000000000000, 0.0000000000000000000 ) ) ;
#72 = DIRECTION ( 'NONE',  ( -0.0000000000000000000, -0.0000000000000000000, -1.000000000000000000 ) ) ;
#73 = PERSON_AND_ORGANIZATION_ROLE ( 'creator' ) ;
#74 = COORDINATED_UNIVERSAL_TIME_OFFSET ( 5, 0, .BEHIND. ) ;
#75 = PERSON_AND_ORGANIZATION ( #47, #110 ) ;
#76 = APPROVAL_ROLE ( '' ) ;
#77 = APPROVAL ( #153, 'UNSPECIFIED' ) ;
#78 = ORIENTED_EDGE ( 'NONE', *, *, #90, .T. ) ;
#79 = EDGE_CURVE ( 'NONE', #30, #138, #40, .T. ) ;
#80 = COORDINATED_UNIVERSAL_TIME_OFFSET ( 5, 0, .BEHIND. ) ;
#81 = CYLINDRICAL_SURFACE ( 'NONE', #66, 12.50000000000000000 ) ;
#82 = APPROVAL ( #106, 'UNSPECIFIED' ) ;
#83 = PERSON_AND_ORGANIZATION ( #47, #110 ) ;
#84 = LINE ( 'NONE', #120, #154 ) ;
#85 = AXIS2_PLACEMENT_3D ( 'NONE', #6, #42, #105 ) ;
#86 = MECHANICAL_CONTEXT ( 'NONE', #104, 'mechanical' ) ;
#87 = CARTESIAN_POINT ( 'NONE',  ( 12.50000000000000000, 1.530808498934191500E-015, -1.000000000000000000 ) ) ;
#88 = CIRCLE ( 'NONE', #10, 12.50000000000000000 ) ;
#89 = CARTESIAN_POINT ( 'NONE',  ( 0.0000000000000000000, 0.0000000000000000000, 0.0000000000000000000 ) ) ;
#90 = EDGE_CURVE ( 'NONE', #98, #30, #123, .T. ) ;
#91 = DATE_TIME_ROLE ( 'creation_date' ) ;
#92 = PRODUCT_DEFINITION_FORMATION_WITH_SPECIFIED_SOURCE ( 'ANY', '', #161, .NOT_KNOWN. ) ;
#93 = PERSON_AND_ORGANIZATION_ROLE ( 'design_owner' ) ;
#94 = COORDINATED_UNIVERSAL_TIME_OFFSET ( 5, 0, .BEHIND. ) ;
#95 = EDGE_LOOP ( 'NONE', ( #127, #12 ) ) ;
#96 = CC_DESIGN_APPROVAL ( #82, ( #135 ) ) ;
#97 = AXIS2_PLACEMENT_3D ( 'NONE', #149, #101, #140 ) ;
#98 = VERTEX_POINT ( 'NONE', #139 ) ;
#99 = CC_DESIGN_APPROVAL ( #174, ( #118 ) ) ;
#100 = PRODUCT_DEFINITION_SHAPE ( 'NONE', 'NONE',  #135 ) ;
#101 = DIRECTION ( 'NONE',  ( -0.0000000000000000000, -0.0000000000000000000, -1.000000000000000000 ) ) ;
#102 = LOCAL_TIME ( 11, 55, 42.00000000000000000, #65 ) ;
#103 = DIRECTION ( 'NONE',  ( 1.000000000000000000, 0.0000000000000000000, 0.0000000000000000000 ) ) ;
#104 = APPLICATION_CONTEXT ( 'configuration controlled 3d designs of mechanical parts and assemblies' ) ;
#105 = DIRECTION ( 'NONE',  ( 1.000000000000000000, 0.0000000000000000000, 0.0000000000000000000 ) ) ;
#106 = APPROVAL_STATUS ( 'not_yet_approved' ) ;
#107 = PERSON_AND_ORGANIZATION_ROLE ( 'design_supplier' ) ;
#108 = AXIS2_PLACEMENT_3D ( 'NONE', #32, #29, #13 ) ;
#109 = CC_DESIGN_PERSON_AND_ORGANIZATION_ASSIGNMENT ( #157, #73, ( #92 ) ) ;
#110 = ORGANIZATION ( 'UNSPECIFIED', 'UNSPECIFIED', '' ) ;
#111 = EDGE_CURVE ( 'NONE', #98, #119, #84, .T. ) ;
#112 = APPROVAL_DATE_TIME ( #54, #174 ) ;
#113 = PERSON_AND_ORGANIZATION ( #47, #110 ) ;
#114 = ORIENTED_EDGE ( 'NONE', *, *, #53, .F. ) ;
#115 = APPROVAL_PERSON_ORGANIZATION ( #22, #77, #51 ) ;
#116 = LOCAL_TIME ( 11, 55, 42.00000000000000000, #80 ) ;
#117 = ADVANCED_FACE ( 'NONE', ( #158 ), #34, .F. ) ;
#118 = SECURITY_CLASSIFICATION ( '', '', #151 ) ;
#119 = VERTEX_POINT ( 'NONE', #31 ) ;
#120 = CARTESIAN_POINT ( 'NONE',  ( -12.50000000000000000, 0.0000000000000000000, 1.000000000000000000 ) ) ;
#121 = EDGE_CURVE ( 'NONE', #119, #138, #88, .T. ) ;
#122 = APPROVAL_PERSON_ORGANIZATION ( #83, #174, #76 ) ;
#123 = CIRCLE ( 'NONE', #130, 12.50000000000000000 ) ;
#124 = AXIS2_PLACEMENT_3D ( 'NONE', #45, #19, #71 ) ;
#125 = COORDINATED_UNIVERSAL_TIME_OFFSET ( 5, 0, .BEHIND. ) ;
#126 = DIRECTION ( 'NONE',  ( -1.000000000000000000, 0.0000000000000000000, 0.0000000000000000000 ) ) ;
#127 = ORIENTED_EDGE ( 'NONE', *, *, #121, .F. ) ;
#128 = ADVANCED_FACE ( 'NONE', ( #50 ), #81, .T. ) ;
#129 = CARTESIAN_POINT ( 'NONE',  ( 12.50000000000000000, 1.530808498934191500E-015, 1.000000000000000000 ) ) ;
#130 = AXIS2_PLACEMENT_3D ( 'NONE', #141, #61, #103 ) ;
#131 = FACE_OUTER_BOUND ( 'NONE', #142, .T. ) ;
#132 = PRODUCT_RELATED_PRODUCT_CATEGORY ( 'detail', '', ( #161 ) ) ;
#133 = PERSON_AND_ORGANIZATION ( #47, #110 ) ;
#134 = APPROVAL_DATE_TIME ( #143, #82 ) ;
#135 = PRODUCT_DEFINITION ( 'UNKNOWN', '', #92, #55 ) ;
#136 = MANIFOLD_SOLID_BREP ( 'Boss-Extrude1', #36 ) ;
#137 = ORIENTED_EDGE ( 'NONE', *, *, #79, .T. ) ;
#138 = VERTEX_POINT ( 'NONE', #87 ) ;
#139 = CARTESIAN_POINT ( 'NONE',  ( -12.50000000000000000, 0.0000000000000000000, 1.000000000000000000 ) ) ;
#140 = DIRECTION ( 'NONE',  ( -1.000000000000000000, 0.0000000000000000000, 0.0000000000000000000 ) ) ;
#141 = CARTESIAN_POINT ( 'NONE',  ( 0.0000000000000000000, 0.0000000000000000000, 1.000000000000000000 ) ) ;
#142 = EDGE_LOOP ( 'NONE', ( #78, #41 ) ) ;
#143 = DATE_AND_TIME ( #175, #116 ) ;
#144 = DATE_TIME_ROLE ( 'classification_date' ) ;
#145 = LOCAL_TIME ( 11, 55, 42.00000000000000000, #125 ) ;
#146 = ORIENTED_EDGE ( 'NONE', *, *, #121, .T. ) ;
#147 = CYLINDRICAL_SURFACE ( 'NONE', #97, 12.50000000000000000 ) ;
#148 = PERSON_AND_ORGANIZATION ( #47, #110 ) ;
#149 = CARTESIAN_POINT ( 'NONE',  ( 0.0000000000000000000, 0.0000000000000000000, 1.000000000000000000 ) ) ;
#150 = DIRECTION ( 'NONE',  ( -0.0000000000000000000, -0.0000000000000000000, -1.000000000000000000 ) ) ;
#151 = SECURITY_CLASSIFICATION_LEVEL ( 'unclassified' ) ;
#152 = APPROVAL_STATUS ( 'not_yet_approved' ) ;
#153 = APPROVAL_STATUS ( 'not_yet_approved' ) ;
#154 = VECTOR ( 'NONE', #33, 1000.000000000000000 ) ;
#155 = DATE_AND_TIME ( #159, #145 ) ;
#156 = CC_DESIGN_SECURITY_CLASSIFICATION ( #118, ( #92 ) ) ;
#157 = PERSON_AND_ORGANIZATION ( #47, #110 ) ;
#158 = FACE_OUTER_BOUND ( 'NONE', #95, .T. ) ;
#159 = CALENDAR_DATE ( 2017, 6, 9 ) ;
#160 =( NAMED_UNIT ( * ) PLANE_ANGLE_UNIT ( ) SI_UNIT ( $, .RADIAN. ) );
#161 = PRODUCT ( '36992_36992', '36992_36992', '', ( #86 ) ) ;
#162 = LOCAL_TIME ( 11, 55, 42.00000000000000000, #74 ) ;
#163 = CARTESIAN_POINT ( 'NONE',  ( 0.0000000000000000000, 0.0000000000000000000, -1.000000000000000000 ) ) ;
#164 = DATE_AND_TIME ( #25, #102 ) ;
#165 = DIRECTION ( 'NONE',  ( 1.000000000000000000, 0.0000000000000000000, 0.0000000000000000000 ) ) ;
#166 =( NAMED_UNIT ( * ) SI_UNIT ( $, .STERADIAN. ) SOLID_ANGLE_UNIT ( ) );
#167 = DIRECTION ( 'NONE',  ( 1.000000000000000000, 0.0000000000000000000, -0.0000000000000000000 ) ) ;
#168 = ORIENTED_EDGE ( 'NONE', *, *, #111, .F. ) ;
#169 = CC_DESIGN_DATE_AND_TIME_ASSIGNMENT ( #155, #144, ( #118 ) ) ;
#170 = PERSON_AND_ORGANIZATION ( #47, #110 ) ;
#171 = CALENDAR_DATE ( 2017, 6, 9 ) ;
#172 = ORIENTED_EDGE ( 'NONE', *, *, #111, .T. ) ;
#173 = SHAPE_DEFINITION_REPRESENTATION ( #100, #27 ) ;
#174 = APPROVAL ( #152, 'UNSPECIFIED' ) ;
#175 = CALENDAR_DATE ( 2017, 6, 9 ) ;
ENDSEC;
END-ISO-10303-21;
