ISO-10303-21;
HEADER;
FILE_DESCRIPTION (( 'STEP AP203' ),
    '1' );
FILE_NAME ('Web Model 68538.STEP',
    '2017-02-01T13:30:08',
    ( '' ),
    ( '' ),
    'SwSTEP 2.0',
    'SolidWorks 2016',
    '' );
FILE_SCHEMA (( 'CONFIG_CONTROL_DESIGN' ));
ENDSEC;

DATA;
#1 = DIRECTION ( 'NONE',  ( 1.734723475976807100E-016, 0.0000000000000000000, 1.000000000000000000 ) ) ;
#2 = CC_DESIGN_PERSON_AND_ORGANIZATION_ASSIGNMENT ( #80, #114, ( #32 ) ) ;
#3 = VECTOR ( 'NONE', #24, 1000.000000000000000 ) ;
#4 = DIRECTION ( 'NONE',  ( 0.0000000000000000000, -1.000000000000000000, 0.0000000000000000000 ) ) ;
#5 = VERTEX_POINT ( 'NONE', #237 ) ;
#6 = PLANE ( 'NONE',  #289 ) ;
#7 = PERSON_AND_ORGANIZATION ( #287, #184 ) ;
#8 = LOCAL_TIME ( 8, 30, 8.000000000000000000, #17 ) ;
#9 = CARTESIAN_POINT ( 'NONE',  ( -3.469446951953614200E-015, 20.00000000000000000, -20.00000000000000000 ) ) ;
#10 = FACE_OUTER_BOUND ( 'NONE', #130, .T. ) ;
#11 = AXIS2_PLACEMENT_3D ( 'NONE', #170, #243, #169 ) ;
#12 = FACE_OUTER_BOUND ( 'NONE', #23, .T. ) ;
#13 = EDGE_CURVE ( 'NONE', #307, #293, #185, .T. ) ;
#14 = PLANE ( 'NONE',  #87 ) ;
#15 = PLANE ( 'NONE',  #280 ) ;
#16 = VECTOR ( 'NONE', #194, 1000.000000000000000 ) ;
#17 = COORDINATED_UNIVERSAL_TIME_OFFSET ( 5, 0, .BEHIND. ) ;
#18 = CARTESIAN_POINT ( 'NONE',  ( 20.00000000000000000, 20.00000000000000000, 0.0000000000000000000 ) ) ;
#19 = AXIS2_PLACEMENT_3D ( 'NONE', #111, #311, #108 ) ;
#20 = LINE ( 'NONE', #284, #27 ) ;
#21 = PRODUCT ( 'Web Model 68538', 'Web Model 68538', '', ( #200 ) ) ;
#22 = ORIENTED_EDGE ( 'NONE', *, *, #13, .F. ) ;
#23 = EDGE_LOOP ( 'NONE', ( #69, #59, #22 ) ) ;
#24 = DIRECTION ( 'NONE',  ( -0.0000000000000000000, -0.0000000000000000000, 1.000000000000000000 ) ) ;
#25 = LOCAL_TIME ( 8, 30, 8.000000000000000000, #315 ) ;
#26 = CARTESIAN_POINT ( 'NONE',  ( 0.0000000000000000000, 0.0000000000000000000, 0.0000000000000000000 ) ) ;
#27 = VECTOR ( 'NONE', #267, 1000.000000000000000 ) ;
#28 = FACE_OUTER_BOUND ( 'NONE', #90, .T. ) ;
#29 = CC_DESIGN_DATE_AND_TIME_ASSIGNMENT ( #206, #78, ( #32 ) ) ;
#30 = ORIENTED_EDGE ( 'NONE', *, *, #275, .F. ) ;
#31 = CLOSED_SHELL ( 'NONE', ( #259, #36, #162, #132, #279 ) ) ;
#32 = PRODUCT_DEFINITION ( 'UNKNOWN', '', #46, #79 ) ;
#33 = ADVANCED_FACE ( 'NONE', ( #12 ), #171, .T. ) ;
#34 = CARTESIAN_POINT ( 'NONE',  ( 19.99999999999999600, 0.0000000000000000000, -20.00000000000000000 ) ) ;
#35 = VECTOR ( 'NONE', #160, 1000.000000000000000 ) ;
#36 = ADVANCED_FACE ( 'NONE', ( #86 ), #44, .F. ) ;
#37 = LINE ( 'NONE', #265, #247 ) ;
#38 = ORIENTED_EDGE ( 'NONE', *, *, #13, .T. ) ;
#39 = EDGE_CURVE ( 'NONE', #99, #293, #20, .T. ) ;
#40 = DIRECTION ( 'NONE',  ( 0.0000000000000000000, 0.0000000000000000000, -1.000000000000000000 ) ) ;
#41 = DATE_AND_TIME ( #102, #8 ) ;
#42 = DATE_AND_TIME ( #62, #208 ) ;
#43 = CARTESIAN_POINT ( 'NONE',  ( 20.00000000000000000, 0.0000000000000000000, 0.0000000000000000000 ) ) ;
#44 = PLANE ( 'NONE',  #195 ) ;
#45 = LINE ( 'NONE', #239, #225 ) ;
#46 = PRODUCT_DEFINITION_FORMATION_WITH_SPECIFIED_SOURCE ( 'ANY', '', #21, .NOT_KNOWN. ) ;
#47 = DIRECTION ( 'NONE',  ( -0.7071067811865474600, -0.0000000000000000000, -0.7071067811865474600 ) ) ;
#48 = DIRECTION ( 'NONE',  ( -1.734723475976807100E-016, 0.0000000000000000000, -1.000000000000000000 ) ) ;
#49 = CLOSED_SHELL ( 'NONE', ( #209, #65, #159, #234, #33 ) ) ;
#50 = CARTESIAN_POINT ( 'NONE',  ( 0.0000000000000000000, 20.00000000000000000, -20.00000000000000400 ) ) ;
#51 = AXIS2_PLACEMENT_3D ( 'NONE', #218, #4, #104 ) ;
#52 = DIRECTION ( 'NONE',  ( 0.0000000000000000000, 0.0000000000000000000, -1.000000000000000000 ) ) ;
#53 = DIRECTION ( 'NONE',  ( 0.0000000000000000000, 0.0000000000000000000, 1.000000000000000000 ) ) ;
#54 = FACE_OUTER_BOUND ( 'NONE', #191, .T. ) ;
#55 =( LENGTH_UNIT ( ) NAMED_UNIT ( * ) SI_UNIT ( .MILLI., .METRE. ) );
#56 = EDGE_CURVE ( 'NONE', #57, #83, #298, .T. ) ;
#57 = VERTEX_POINT ( 'NONE', #241 ) ;
#58 = VECTOR ( 'NONE', #299, 1000.000000000000000 ) ;
#59 = ORIENTED_EDGE ( 'NONE', *, *, #166, .F. ) ;
#60 = ORIENTED_EDGE ( 'NONE', *, *, #274, .F. ) ;
#61 = AXIS2_PLACEMENT_3D ( 'NONE', #278, #321, #1 ) ;
#62 = CALENDAR_DATE ( 2017, 1, 2 ) ;
#63 = MANIFOLD_SOLID_BREP ( 'Extrude1', #49 ) ;
#64 = ORIENTED_EDGE ( 'NONE', *, *, #246, .F. ) ;
#65 = ADVANCED_FACE ( 'NONE', ( #276 ), #73, .F. ) ;
#66 = LINE ( 'NONE', #176, #16 ) ;
#67 = APPROVAL_DATE_TIME ( #42, #255 ) ;
#68 = AXIS2_PLACEMENT_3D ( 'NONE', #70, #238, #100 ) ;
#69 = ORIENTED_EDGE ( 'NONE', *, *, #229, .F. ) ;
#70 = CARTESIAN_POINT ( 'NONE',  ( 0.0000000000000000000, 20.00000000000000000, -20.00000000000000400 ) ) ;
#71 = PERSON_AND_ORGANIZATION ( #287, #184 ) ;
#72 = LINE ( 'NONE', #264, #309 ) ;
#73 = PLANE ( 'NONE',  #11 ) ;
#74 = LINE ( 'NONE', #145, #3 ) ;
#75 = CARTESIAN_POINT ( 'NONE',  ( -3.469446951953614200E-015, 20.00000000000000000, -20.00000000000000000 ) ) ;
#76 = APPLICATION_PROTOCOL_DEFINITION ( 'international standard', 'config_control_design', 1994, #291 ) ;
#77 = PLANE ( 'NONE',  #19 ) ;
#78 = DATE_TIME_ROLE ( 'creation_date' ) ;
#79 = DESIGN_CONTEXT ( 'detailed design', #294, 'design' ) ;
#80 = PERSON_AND_ORGANIZATION ( #287, #184 ) ;
#81 = EDGE_CURVE ( 'NONE', #223, #57, #37, .T. ) ;
#82 = VECTOR ( 'NONE', #232, 1000.000000000000000 ) ;
#83 = VERTEX_POINT ( 'NONE', #120 ) ;
#84 = LOCAL_TIME ( 8, 30, 8.000000000000000000, #101 ) ;
#85 = PERSON_AND_ORGANIZATION_ROLE ( 'creator' ) ;
#86 = FACE_OUTER_BOUND ( 'NONE', #227, .T. ) ;
#87 = AXIS2_PLACEMENT_3D ( 'NONE', #75, #245, #290 ) ;
#88 = COORDINATED_UNIVERSAL_TIME_OFFSET ( 5, 0, .BEHIND. ) ;
#89 = APPROVAL_PERSON_ORGANIZATION ( #91, #128, #316 ) ;
#90 = EDGE_LOOP ( 'NONE', ( #115, #188, #204, #182 ) ) ;
#91 = PERSON_AND_ORGANIZATION ( #287, #184 ) ;
#92 = LINE ( 'NONE', #261, #244 ) ;
#93 = CARTESIAN_POINT ( 'NONE',  ( -3.469446951953614200E-015, 0.0000000000000000000, -20.00000000000000000 ) ) ;
#94 = VECTOR ( 'NONE', #118, 1000.000000000000000 ) ;
#95 = FACE_OUTER_BOUND ( 'NONE', #236, .T. ) ;
#96 = CARTESIAN_POINT ( 'NONE',  ( 0.0000000000000000000, 0.0000000000000000000, -20.00000000000000400 ) ) ;
#97 = CARTESIAN_POINT ( 'NONE',  ( 0.0000000000000000000, 0.0000000000000000000, 0.0000000000000000000 ) ) ;
#98 = EDGE_LOOP ( 'NONE', ( #168, #113, #295, #126 ) ) ;
#99 = VERTEX_POINT ( 'NONE', #308 ) ;
#100 = DIRECTION ( 'NONE',  ( 0.7071067811865474600, 0.0000000000000000000, 0.7071067811865474600 ) ) ;
#101 = COORDINATED_UNIVERSAL_TIME_OFFSET ( 5, 0, .BEHIND. ) ;
#102 = CALENDAR_DATE ( 2017, 1, 2 ) ;
#103 = CARTESIAN_POINT ( 'NONE',  ( -3.469446951953614200E-015, 20.00000000000000000, -20.00000000000000000 ) ) ;
#104 = DIRECTION ( 'NONE',  ( 0.0000000000000000000, -0.0000000000000000000, -1.000000000000000000 ) ) ;
#105 = CARTESIAN_POINT ( 'NONE',  ( 19.99999999999999600, 20.00000000000000000, -20.00000000000000000 ) ) ;
#106 = FACE_OUTER_BOUND ( 'NONE', #119, .T. ) ;
#107 = CC_DESIGN_PERSON_AND_ORGANIZATION_ASSIGNMENT ( #71, #109, ( #46 ) ) ;
#108 = DIRECTION ( 'NONE',  ( 0.0000000000000000000, 0.0000000000000000000, -1.000000000000000000 ) ) ;
#109 = PERSON_AND_ORGANIZATION_ROLE ( 'design_supplier' ) ;
#110 = VECTOR ( 'NONE', #286, 1000.000000000000000 ) ;
#111 = CARTESIAN_POINT ( 'NONE',  ( 0.0000000000000000000, 20.00000000000000000, 0.0000000000000000000 ) ) ;
#112 =( NAMED_UNIT ( * ) SI_UNIT ( $, .STERADIAN. ) SOLID_ANGLE_UNIT ( ) );
#113 = ORIENTED_EDGE ( 'NONE', *, *, #140, .F. ) ;
#114 = PERSON_AND_ORGANIZATION_ROLE ( 'creator' ) ;
#115 = ORIENTED_EDGE ( 'NONE', *, *, #166, .T. ) ;
#116 = CC_DESIGN_DATE_AND_TIME_ASSIGNMENT ( #149, #150, ( #156 ) ) ;
#117 = ORIENTED_EDGE ( 'NONE', *, *, #213, .T. ) ;
#118 = DIRECTION ( 'NONE',  ( -1.734723475976807100E-016, 0.0000000000000000000, -1.000000000000000000 ) ) ;
#119 = EDGE_LOOP ( 'NONE', ( #235, #135, #183 ) ) ;
#120 = CARTESIAN_POINT ( 'NONE',  ( 19.99999999999999600, 0.0000000000000000000, -20.00000000000000000 ) ) ;
#121 = VERTEX_POINT ( 'NONE', #105 ) ;
#122 = LINE ( 'NONE', #219, #301 ) ;
#123 = CARTESIAN_POINT ( 'NONE',  ( -3.469446951953614200E-015, 0.0000000000000000000, -20.00000000000000000 ) ) ;
#124 = ORIENTED_EDGE ( 'NONE', *, *, #81, .T. ) ;
#125 = APPROVAL ( #272, 'UNSPECIFIED' ) ;
#126 = ORIENTED_EDGE ( 'NONE', *, *, #269, .T. ) ;
#127 = APPROVAL_STATUS ( 'not_yet_approved' ) ;
#128 = APPROVAL ( #253, 'UNSPECIFIED' ) ;
#129 = ORIENTED_EDGE ( 'NONE', *, *, #81, .F. ) ;
#130 = EDGE_LOOP ( 'NONE', ( #151, #64, #252, #303 ) ) ;
#131 = APPROVAL_PERSON_ORGANIZATION ( #137, #125, #221 ) ;
#132 = ADVANCED_FACE ( 'NONE', ( #54 ), #6, .F. ) ;
#133 = CARTESIAN_POINT ( 'NONE',  ( 20.00000000000000000, 20.00000000000000000, 0.0000000000000000000 ) ) ;
#134 = CARTESIAN_POINT ( 'NONE',  ( -3.469446951953614200E-015, 20.00000000000000000, -20.00000000000000000 ) ) ;
#135 = ORIENTED_EDGE ( 'NONE', *, *, #196, .T. ) ;
#136 = CC_DESIGN_PERSON_AND_ORGANIZATION_ASSIGNMENT ( #273, #85, ( #46 ) ) ;
#137 = PERSON_AND_ORGANIZATION ( #287, #184 ) ;
#138 = DIRECTION ( 'NONE',  ( 1.000000000000000000, 0.0000000000000000000, 0.0000000000000000000 ) ) ;
#139 = VECTOR ( 'NONE', #207, 1000.000000000000000 ) ;
#140 = EDGE_CURVE ( 'NONE', #257, #307, #164, .T. ) ;
#141 = PLANE ( 'NONE',  #68 ) ;
#142 = CARTESIAN_POINT ( 'NONE',  ( -3.469446951953614200E-015, 20.00000000000000000, -20.00000000000000000 ) ) ;
#143 = CC_DESIGN_APPROVAL ( #128, ( #156 ) ) ;
#144 = CARTESIAN_POINT ( 'NONE',  ( 0.0000000000000000000, 20.00000000000000000, 0.0000000000000000000 ) ) ;
#145 = CARTESIAN_POINT ( 'NONE',  ( 0.0000000000000000000, 20.00000000000000000, 0.0000000000000000000 ) ) ;
#146 = PLANE ( 'NONE',  #61 ) ;
#147 = ORIENTED_EDGE ( 'NONE', *, *, #199, .F. ) ;
#148 = APPROVAL_ROLE ( '' ) ;
#149 = DATE_AND_TIME ( #214, #25 ) ;
#150 = DATE_TIME_ROLE ( 'classification_date' ) ;
#151 = ORIENTED_EDGE ( 'NONE', *, *, #56, .T. ) ;
#152 = APPLICATION_PROTOCOL_DEFINITION ( 'international standard', 'config_control_design', 1994, #294 ) ;
#153 = FACE_OUTER_BOUND ( 'NONE', #167, .T. ) ;
#154 = ORIENTED_EDGE ( 'NONE', *, *, #275, .T. ) ;
#155 = APPROVAL_DATE_TIME ( #41, #128 ) ;
#156 = SECURITY_CLASSIFICATION ( '', '', #310 ) ;
#157 = CARTESIAN_POINT ( 'NONE',  ( 0.0000000000000000000, 20.00000000000000000, 0.0000000000000000000 ) ) ;
#158 = LINE ( 'NONE', #103, #180 ) ;
#159 = ADVANCED_FACE ( 'NONE', ( #28 ), #141, .F. ) ;
#160 = DIRECTION ( 'NONE',  ( -1.000000000000000000, -0.0000000000000000000, -0.0000000000000000000 ) ) ;
#161 = EDGE_CURVE ( 'NONE', #5, #248, #158, .T. ) ;
#162 = ADVANCED_FACE ( 'NONE', ( #95 ), #14, .F. ) ;
#163 = CC_DESIGN_SECURITY_CLASSIFICATION ( #156, ( #46 ) ) ;
#164 = LINE ( 'NONE', #215, #110 ) ;
#165 = APPROVAL_PERSON_ORGANIZATION ( #296, #255, #148 ) ;
#166 = EDGE_CURVE ( 'NONE', #293, #256, #45, .T. ) ;
#167 = EDGE_LOOP ( 'NONE', ( #197, #129, #30 ) ) ;
#168 = ORIENTED_EDGE ( 'NONE', *, *, #229, .T. ) ;
#169 = DIRECTION ( 'NONE',  ( -1.000000000000000000, 0.0000000000000000000, -0.0000000000000000000 ) ) ;
#170 = CARTESIAN_POINT ( 'NONE',  ( 0.0000000000000000000, 20.00000000000000000, 0.0000000000000000000 ) ) ;
#171 = PLANE ( 'NONE',  #51 ) ;
#172 = DIRECTION ( 'NONE',  ( -0.7071067811865474600, -0.0000000000000000000, -0.7071067811865474600 ) ) ;
#173 = LINE ( 'NONE', #134, #35 ) ;
#174 = DIRECTION ( 'NONE',  ( 0.0000000000000000000, -1.000000000000000000, 0.0000000000000000000 ) ) ;
#175 = PERSON_AND_ORGANIZATION_ROLE ( 'classification_officer' ) ;
#176 = CARTESIAN_POINT ( 'NONE',  ( 0.0000000000000000000, 0.0000000000000000000, 0.0000000000000000000 ) ) ;
#177 = ORIENTED_EDGE ( 'NONE', *, *, #274, .T. ) ;
#178 = DIRECTION ( 'NONE',  ( 1.000000000000000000, 0.0000000000000000000, 0.0000000000000000000 ) ) ;
#179 = CARTESIAN_POINT ( 'NONE',  ( 20.00000000000000400, 0.0000000000000000000, 0.0000000000000000000 ) ) ;
#180 = VECTOR ( 'NONE', #222, 1000.000000000000000 ) ;
#181 = CC_DESIGN_APPROVAL ( #125, ( #46 ) ) ;
#182 = ORIENTED_EDGE ( 'NONE', *, *, #39, .T. ) ;
#183 = ORIENTED_EDGE ( 'NONE', *, *, #228, .T. ) ;
#184 = ORGANIZATION ( 'UNSPECIFIED', 'UNSPECIFIED', '' ) ;
#185 = LINE ( 'NONE', #97, #217 ) ;
#186 = ORIENTED_EDGE ( 'NONE', *, *, #39, .F. ) ;
#187 = AXIS2_PLACEMENT_3D ( 'NONE', #34, #201, #52 ) ;
#188 = ORIENTED_EDGE ( 'NONE', *, *, #269, .F. ) ;
#189 = DIRECTION ( 'NONE',  ( 0.0000000000000000000, -1.000000000000000000, 0.0000000000000000000 ) ) ;
#190 = CARTESIAN_POINT ( 'NONE',  ( 19.99999999999999600, 20.00000000000000000, -20.00000000000000000 ) ) ;
#191 = EDGE_LOOP ( 'NONE', ( #117, #302, #283 ) ) ;
#192 = CC_DESIGN_PERSON_AND_ORGANIZATION_ASSIGNMENT ( #7, #175, ( #156 ) ) ;
#193 = LINE ( 'NONE', #18, #254 ) ;
#194 = DIRECTION ( 'NONE',  ( -0.0000000000000000000, -0.0000000000000000000, 1.000000000000000000 ) ) ;
#195 = AXIS2_PLACEMENT_3D ( 'NONE', #9, #305, #212 ) ;
#196 = EDGE_CURVE ( 'NONE', #257, #99, #220, .T. ) ;
#197 = ORIENTED_EDGE ( 'NONE', *, *, #56, .F. ) ;
#198 = PRODUCT_RELATED_PRODUCT_CATEGORY ( 'detail', '', ( #21 ) ) ;
#199 = EDGE_CURVE ( 'NONE', #248, #57, #72, .T. ) ;
#200 = MECHANICAL_CONTEXT ( 'NONE', #291, 'mechanical' ) ;
#201 = DIRECTION ( 'NONE',  ( 0.0000000000000000000, -1.000000000000000000, 0.0000000000000000000 ) ) ;
#202 = APPROVAL_DATE_TIME ( #266, #125 ) ;
#203 = CC_DESIGN_APPROVAL ( #255, ( #32 ) ) ;
#204 = ORIENTED_EDGE ( 'NONE', *, *, #228, .F. ) ;
#205 = ADVANCED_BREP_SHAPE_REPRESENTATION ( 'Web Model 68538', ( #63, #312, #304 ), #258 ) ;
#206 = DATE_AND_TIME ( #277, #297 ) ;
#207 = DIRECTION ( 'NONE',  ( -0.0000000000000000000, -1.000000000000000000, -0.0000000000000000000 ) ) ;
#208 = LOCAL_TIME ( 8, 30, 8.000000000000000000, #88 ) ;
#209 = ADVANCED_FACE ( 'NONE', ( #216 ), #77, .F. ) ;
#210 = DIRECTION ( 'NONE',  ( 0.0000000000000000000, -0.0000000000000000000, -1.000000000000000000 ) ) ;
#211 = DIRECTION ( 'NONE',  ( -0.0000000000000000000, -1.000000000000000000, -0.0000000000000000000 ) ) ;
#212 = DIRECTION ( 'NONE',  ( 1.000000000000000000, 0.0000000000000000000, -0.0000000000000000000 ) ) ;
#213 = EDGE_CURVE ( 'NONE', #248, #121, #193, .T. ) ;
#214 = CALENDAR_DATE ( 2017, 1, 2 ) ;
#215 = CARTESIAN_POINT ( 'NONE',  ( 0.0000000000000000000, 20.00000000000000000, 0.0000000000000000000 ) ) ;
#216 = FACE_OUTER_BOUND ( 'NONE', #98, .T. ) ;
#217 = VECTOR ( 'NONE', #138, 1000.000000000000000 ) ;
#218 = CARTESIAN_POINT ( 'NONE',  ( 0.0000000000000000000, 0.0000000000000000000, 0.0000000000000000000 ) ) ;
#219 = CARTESIAN_POINT ( 'NONE',  ( 0.0000000000000000000, 20.00000000000000000, -20.00000000000000400 ) ) ;
#220 = LINE ( 'NONE', #270, #233 ) ;
#221 = APPROVAL_ROLE ( '' ) ;
#222 = DIRECTION ( 'NONE',  ( 0.7071067811865475700, 0.0000000000000000000, 0.7071067811865474600 ) ) ;
#223 = VERTEX_POINT ( 'NONE', #123 ) ;
#224 = EDGE_LOOP ( 'NONE', ( #38, #186, #250, #281 ) ) ;
#225 = VECTOR ( 'NONE', #47, 1000.000000000000100 ) ;
#226 = PERSON_AND_ORGANIZATION_ROLE ( 'design_owner' ) ;
#227 = EDGE_LOOP ( 'NONE', ( #154, #60, #318, #285 ) ) ;
#228 = EDGE_CURVE ( 'NONE', #99, #313, #122, .T. ) ;
#229 = EDGE_CURVE ( 'NONE', #256, #307, #66, .T. ) ;
#230 = PRODUCT_DEFINITION_SHAPE ( 'NONE', 'NONE',  #32 ) ;
#231 = SHAPE_DEFINITION_REPRESENTATION ( #230, #205 ) ;
#232 = DIRECTION ( 'NONE',  ( -0.0000000000000000000, -1.000000000000000000, -0.0000000000000000000 ) ) ;
#233 = VECTOR ( 'NONE', #249, 1000.000000000000000 ) ;
#234 = ADVANCED_FACE ( 'NONE', ( #106 ), #15, .F. ) ;
#235 = ORIENTED_EDGE ( 'NONE', *, *, #300, .T. ) ;
#236 = EDGE_LOOP ( 'NONE', ( #124, #147, #317, #177 ) ) ;
#237 = CARTESIAN_POINT ( 'NONE',  ( -3.469446951953614200E-015, 20.00000000000000000, -20.00000000000000000 ) ) ;
#238 = DIRECTION ( 'NONE',  ( -0.7071067811865475700, 0.0000000000000000000, 0.7071067811865475700 ) ) ;
#239 = CARTESIAN_POINT ( 'NONE',  ( 0.0000000000000000000, 0.0000000000000000000, -20.00000000000000400 ) ) ;
#240 = PERSON_AND_ORGANIZATION ( #287, #184 ) ;
#241 = CARTESIAN_POINT ( 'NONE',  ( 20.00000000000000000, 0.0000000000000000000, 0.0000000000000000000 ) ) ;
#242 = EDGE_CURVE ( 'NONE', #121, #5, #173, .T. ) ;
#243 = DIRECTION ( 'NONE',  ( 0.0000000000000000000, 0.0000000000000000000, -1.000000000000000000 ) ) ;
#244 = VECTOR ( 'NONE', #211, 1000.000000000000000 ) ;
#245 = DIRECTION ( 'NONE',  ( 0.7071067811865474600, 0.0000000000000000000, -0.7071067811865475700 ) ) ;
#246 = EDGE_CURVE ( 'NONE', #121, #83, #92, .T. ) ;
#247 = VECTOR ( 'NONE', #282, 1000.000000000000000 ) ;
#248 = VERTEX_POINT ( 'NONE', #133 ) ;
#249 = DIRECTION ( 'NONE',  ( 1.000000000000000000, 0.0000000000000000000, 0.0000000000000000000 ) ) ;
#250 = ORIENTED_EDGE ( 'NONE', *, *, #196, .F. ) ;
#251 = LINE ( 'NONE', #319, #139 ) ;
#252 = ORIENTED_EDGE ( 'NONE', *, *, #213, .F. ) ;
#253 = APPROVAL_STATUS ( 'not_yet_approved' ) ;
#254 = VECTOR ( 'NONE', #48, 1000.000000000000000 ) ;
#255 = APPROVAL ( #127, 'UNSPECIFIED' ) ;
#256 = VERTEX_POINT ( 'NONE', #96 ) ;
#257 = VERTEX_POINT ( 'NONE', #157 ) ;
#258 =( GEOMETRIC_REPRESENTATION_CONTEXT ( 3 ) GLOBAL_UNCERTAINTY_ASSIGNED_CONTEXT ( ( #263 ) ) GLOBAL_UNIT_ASSIGNED_CONTEXT ( ( #55, #271, #112 ) ) REPRESENTATION_CONTEXT ( 'NONE', 'WORKASPACE' ) );
#259 = ADVANCED_FACE ( 'NONE', ( #10 ), #146, .F. ) ;
#260 = PLANE ( 'NONE',  #187 ) ;
#261 = CARTESIAN_POINT ( 'NONE',  ( 19.99999999999999600, 20.00000000000000000, -20.00000000000000000 ) ) ;
#262 = COORDINATED_UNIVERSAL_TIME_OFFSET ( 5, 0, .BEHIND. ) ;
#263 = UNCERTAINTY_MEASURE_WITH_UNIT (LENGTH_MEASURE( 1.000000000000000100E-005 ), #55, 'distance_accuracy_value', 'NONE');
#264 = CARTESIAN_POINT ( 'NONE',  ( 20.00000000000000000, 20.00000000000000000, 0.0000000000000000000 ) ) ;
#265 = CARTESIAN_POINT ( 'NONE',  ( -3.469446951953614200E-015, 0.0000000000000000000, -20.00000000000000000 ) ) ;
#266 = DATE_AND_TIME ( #320, #84 ) ;
#267 = DIRECTION ( 'NONE',  ( -0.0000000000000000000, -1.000000000000000000, -0.0000000000000000000 ) ) ;
#268 = CC_DESIGN_PERSON_AND_ORGANIZATION_ASSIGNMENT ( #240, #226, ( #21 ) ) ;
#269 = EDGE_CURVE ( 'NONE', #313, #256, #251, .T. ) ;
#270 = CARTESIAN_POINT ( 'NONE',  ( 0.0000000000000000000, 20.00000000000000000, 0.0000000000000000000 ) ) ;
#271 =( NAMED_UNIT ( * ) PLANE_ANGLE_UNIT ( ) SI_UNIT ( $, .RADIAN. ) );
#272 = APPROVAL_STATUS ( 'not_yet_approved' ) ;
#273 = PERSON_AND_ORGANIZATION ( #287, #184 ) ;
#274 = EDGE_CURVE ( 'NONE', #5, #223, #306, .T. ) ;
#275 = EDGE_CURVE ( 'NONE', #83, #223, #292, .T. ) ;
#276 = FACE_OUTER_BOUND ( 'NONE', #224, .T. ) ;
#277 = CALENDAR_DATE ( 2017, 1, 2 ) ;
#278 = CARTESIAN_POINT ( 'NONE',  ( 20.00000000000000000, 20.00000000000000000, 0.0000000000000000000 ) ) ;
#279 = ADVANCED_FACE ( 'NONE', ( #153 ), #260, .T. ) ;
#280 = AXIS2_PLACEMENT_3D ( 'NONE', #144, #174, #210 ) ;
#281 = ORIENTED_EDGE ( 'NONE', *, *, #140, .T. ) ;
#282 = DIRECTION ( 'NONE',  ( 0.7071067811865475700, 0.0000000000000000000, 0.7071067811865474600 ) ) ;
#283 = ORIENTED_EDGE ( 'NONE', *, *, #161, .T. ) ;
#284 = CARTESIAN_POINT ( 'NONE',  ( 20.00000000000000400, 20.00000000000000000, 0.0000000000000000000 ) ) ;
#285 = ORIENTED_EDGE ( 'NONE', *, *, #246, .T. ) ;
#286 = DIRECTION ( 'NONE',  ( -0.0000000000000000000, -1.000000000000000000, -0.0000000000000000000 ) ) ;
#287 = PERSON ( 'UNSPECIFIED', 'UNSPECIFIED', 'UNSPECIFIED', ('UNSPECIFIED'), ('UNSPECIFIED'), ('UNSPECIFIED') ) ;
#288 = DIRECTION ( 'NONE',  ( -0.0000000000000000000, -1.000000000000000000, -0.0000000000000000000 ) ) ;
#289 = AXIS2_PLACEMENT_3D ( 'NONE', #190, #189, #40 ) ;
#290 = DIRECTION ( 'NONE',  ( -0.7071067811865475700, 0.0000000000000000000, -0.7071067811865474600 ) ) ;
#291 = APPLICATION_CONTEXT ( 'configuration controlled 3d designs of mechanical parts and assemblies' ) ;
#292 = LINE ( 'NONE', #93, #58 ) ;
#293 = VERTEX_POINT ( 'NONE', #179 ) ;
#294 = APPLICATION_CONTEXT ( 'configuration controlled 3d designs of mechanical parts and assemblies' ) ;
#295 = ORIENTED_EDGE ( 'NONE', *, *, #300, .F. ) ;
#296 = PERSON_AND_ORGANIZATION ( #287, #184 ) ;
#297 = LOCAL_TIME ( 8, 30, 8.000000000000000000, #262 ) ;
#298 = LINE ( 'NONE', #43, #94 ) ;
#299 = DIRECTION ( 'NONE',  ( -1.000000000000000000, -0.0000000000000000000, -0.0000000000000000000 ) ) ;
#300 = EDGE_CURVE ( 'NONE', #313, #257, #74, .T. ) ;
#301 = VECTOR ( 'NONE', #172, 1000.000000000000100 ) ;
#302 = ORIENTED_EDGE ( 'NONE', *, *, #242, .T. ) ;
#303 = ORIENTED_EDGE ( 'NONE', *, *, #199, .T. ) ;
#304 = AXIS2_PLACEMENT_3D ( 'NONE', #314, #53, #178 ) ;
#305 = DIRECTION ( 'NONE',  ( 0.0000000000000000000, 0.0000000000000000000, 1.000000000000000000 ) ) ;
#306 = LINE ( 'NONE', #142, #82 ) ;
#307 = VERTEX_POINT ( 'NONE', #26 ) ;
#308 = CARTESIAN_POINT ( 'NONE',  ( 20.00000000000000400, 20.00000000000000000, 0.0000000000000000000 ) ) ;
#309 = VECTOR ( 'NONE', #288, 1000.000000000000000 ) ;
#310 = SECURITY_CLASSIFICATION_LEVEL ( 'unclassified' ) ;
#311 = DIRECTION ( 'NONE',  ( 1.000000000000000000, -0.0000000000000000000, 0.0000000000000000000 ) ) ;
#312 = MANIFOLD_SOLID_BREP ( 'Extrude2', #31 ) ;
#313 = VERTEX_POINT ( 'NONE', #50 ) ;
#314 = CARTESIAN_POINT ( 'NONE',  ( 0.0000000000000000000, 0.0000000000000000000, 0.0000000000000000000 ) ) ;
#315 = COORDINATED_UNIVERSAL_TIME_OFFSET ( 5, 0, .BEHIND. ) ;
#316 = APPROVAL_ROLE ( '' ) ;
#317 = ORIENTED_EDGE ( 'NONE', *, *, #161, .F. ) ;
#318 = ORIENTED_EDGE ( 'NONE', *, *, #242, .F. ) ;
#319 = CARTESIAN_POINT ( 'NONE',  ( 0.0000000000000000000, 20.00000000000000000, -20.00000000000000400 ) ) ;
#320 = CALENDAR_DATE ( 2017, 1, 2 ) ;
#321 = DIRECTION ( 'NONE',  ( -1.000000000000000000, 0.0000000000000000000, 1.734723475976807100E-016 ) ) ;
ENDSEC;
END-ISO-10303-21;
