ISO-10303-21;
HEADER;
FILE_DESCRIPTION (( 'STEP AP203' ),
    '1' );
FILE_NAME ('step_35933.step',
    '2017-05-22T20:25:53',
    ( '' ),
    ( '' ),
    'SwSTEP 2.0',
    'SolidWorks 2016',
    '' );
FILE_SCHEMA (( 'CONFIG_CONTROL_DESIGN' ));
ENDSEC;

DATA;
#1 =( LENGTH_UNIT ( ) NAMED_UNIT ( * ) SI_UNIT ( .MILLI., .METRE. ) );
#2 = CIRCLE ( 'NONE', #73, 12.50000000000000000 ) ;
#3 = APPROVAL_ROLE ( '' ) ;
#4 = APPROVAL ( #54, 'UNSPECIFIED' ) ;
#5 = CIRCLE ( 'NONE', #78, 12.50000000000000000 ) ;
#6 = PLANE ( 'NONE',  #38 ) ;
#7 = DIRECTION ( 'NONE',  ( 1.000000000000000000, 0.0000000000000000000, 0.0000000000000000000 ) ) ;
#8 = APPROVAL_ROLE ( '' ) ;
#9 = CARTESIAN_POINT ( 'NONE',  ( 0.0000000000000000000, 0.0000000000000000000, 1.000000000000000000 ) ) ;
#10 = DIRECTION ( 'NONE',  ( 0.0000000000000000000, 0.0000000000000000000, 1.000000000000000000 ) ) ;
#11 = CC_DESIGN_APPROVAL ( #4, ( #170 ) ) ;
#12 = CARTESIAN_POINT ( 'NONE',  ( 0.0000000000000000000, 0.0000000000000000000, 0.0000000000000000000 ) ) ;
#13 = DIRECTION ( 'NONE',  ( -1.000000000000000000, 0.0000000000000000000, 0.0000000000000000000 ) ) ;
#14 = CC_DESIGN_PERSON_AND_ORGANIZATION_ASSIGNMENT ( #75, #124, ( #170 ) ) ;
#15 = APPLICATION_CONTEXT ( 'configuration controlled 3d designs of mechanical parts and assemblies' ) ;
#16 = PERSON_AND_ORGANIZATION_ROLE ( 'classification_officer' ) ;
#17 = APPROVAL_PERSON_ORGANIZATION ( #168, #60, #3 ) ;
#18 = DIRECTION ( 'NONE',  ( -1.000000000000000000, 0.0000000000000000000, 0.0000000000000000000 ) ) ;
#19 = CARTESIAN_POINT ( 'NONE',  ( -12.50000000000000000, 0.0000000000000000000, 1.000000000000000000 ) ) ;
#20 = ORIENTED_EDGE ( 'NONE', *, *, #66, .T. ) ;
#21 = MECHANICAL_CONTEXT ( 'NONE', #22, 'mechanical' ) ;
#22 = APPLICATION_CONTEXT ( 'configuration controlled 3d designs of mechanical parts and assemblies' ) ;
#23 = DIRECTION ( 'NONE',  ( -0.0000000000000000000, -0.0000000000000000000, -1.000000000000000000 ) ) ;
#24 = CYLINDRICAL_SURFACE ( 'NONE', #90, 12.50000000000000000 ) ;
#25 = CIRCLE ( 'NONE', #81, 12.50000000000000000 ) ;
#26 = CC_DESIGN_PERSON_AND_ORGANIZATION_ASSIGNMENT ( #169, #40, ( #170 ) ) ;
#27 = CARTESIAN_POINT ( 'NONE',  ( 0.0000000000000000000, 0.0000000000000000000, 1.000000000000000000 ) ) ;
#28 = APPROVAL_ROLE ( '' ) ;
#29 = DIRECTION ( 'NONE',  ( 0.0000000000000000000, 0.0000000000000000000, 1.000000000000000000 ) ) ;
#30 = CYLINDRICAL_SURFACE ( 'NONE', #103, 12.50000000000000000 ) ;
#31 = APPROVAL_DATE_TIME ( #84, #60 ) ;
#32 =( NAMED_UNIT ( * ) PLANE_ANGLE_UNIT ( ) SI_UNIT ( $, .RADIAN. ) );
#33 = SECURITY_CLASSIFICATION ( '', '', #114 ) ;
#34 = PERSON_AND_ORGANIZATION ( #86, #43 ) ;
#35 =( GEOMETRIC_REPRESENTATION_CONTEXT ( 3 ) GLOBAL_UNCERTAINTY_ASSIGNED_CONTEXT ( ( #47 ) ) GLOBAL_UNIT_ASSIGNED_CONTEXT ( ( #1, #32, #150 ) ) REPRESENTATION_CONTEXT ( 'NONE', 'WORKASPACE' ) );
#36 = CIRCLE ( 'NONE', #46, 12.50000000000000000 ) ;
#37 = ORIENTED_EDGE ( 'NONE', *, *, #67, .T. ) ;
#38 = AXIS2_PLACEMENT_3D ( 'NONE', #9, #157, #126 ) ;
#39 = CC_DESIGN_PERSON_AND_ORGANIZATION_ASSIGNMENT ( #91, #16, ( #33 ) ) ;
#40 = PERSON_AND_ORGANIZATION_ROLE ( 'design_supplier' ) ;
#41 = DIRECTION ( 'NONE',  ( 0.0000000000000000000, 0.0000000000000000000, 1.000000000000000000 ) ) ;
#42 = ORIENTED_EDGE ( 'NONE', *, *, #66, .F. ) ;
#43 = ORGANIZATION ( 'UNSPECIFIED', 'UNSPECIFIED', '' ) ;
#44 = DIRECTION ( 'NONE',  ( -0.0000000000000000000, -0.0000000000000000000, -1.000000000000000000 ) ) ;
#45 = DIRECTION ( 'NONE',  ( 1.000000000000000000, 0.0000000000000000000, 0.0000000000000000000 ) ) ;
#46 = AXIS2_PLACEMENT_3D ( 'NONE', #80, #10, #57 ) ;
#47 = UNCERTAINTY_MEASURE_WITH_UNIT (LENGTH_MEASURE( 1.000000000000000100E-005 ), #1, 'distance_accuracy_value', 'NONE');
#48 = CARTESIAN_POINT ( 'NONE',  ( 12.50000000000000000, 1.530808498934191500E-015, 0.0000000000000000000 ) ) ;
#49 = AXIS2_PLACEMENT_3D ( 'NONE', #108, #76, #164 ) ;
#50 = CC_DESIGN_DATE_AND_TIME_ASSIGNMENT ( #88, #55, ( #33 ) ) ;
#51 = APPROVAL_PERSON_ORGANIZATION ( #125, #141, #8 ) ;
#52 = DESIGN_CONTEXT ( 'detailed design', #15, 'design' ) ;
#53 = DIRECTION ( 'NONE',  ( 1.000000000000000000, 0.0000000000000000000, 0.0000000000000000000 ) ) ;
#54 = APPROVAL_STATUS ( 'not_yet_approved' ) ;
#55 = DATE_TIME_ROLE ( 'classification_date' ) ;
#56 = EDGE_CURVE ( 'NONE', #133, #142, #2, .T. ) ;
#57 = DIRECTION ( 'NONE',  ( 1.000000000000000000, 0.0000000000000000000, 0.0000000000000000000 ) ) ;
#58 = EDGE_LOOP ( 'NONE', ( #37, #153 ) ) ;
#59 = DIRECTION ( 'NONE',  ( 0.0000000000000000000, 0.0000000000000000000, 1.000000000000000000 ) ) ;
#60 = APPROVAL ( #122, 'UNSPECIFIED' ) ;
#61 = EDGE_CURVE ( 'NONE', #142, #127, #145, .T. ) ;
#62 = ORIENTED_EDGE ( 'NONE', *, *, #147, .T. ) ;
#63 = LOCAL_TIME ( 13, 25, 53.00000000000000000, #97 ) ;
#64 = CALENDAR_DATE ( 2017, 22, 5 ) ;
#65 = PERSON_AND_ORGANIZATION ( #86, #43 ) ;
#66 = EDGE_CURVE ( 'NONE', #127, #154, #5, .T. ) ;
#67 = EDGE_CURVE ( 'NONE', #142, #133, #25, .T. ) ;
#68 = LOCAL_TIME ( 13, 25, 53.00000000000000000, #100 ) ;
#69 = APPROVAL_DATE_TIME ( #99, #4 ) ;
#70 = CALENDAR_DATE ( 2017, 22, 5 ) ;
#71 = CARTESIAN_POINT ( 'NONE',  ( 0.0000000000000000000, 0.0000000000000000000, 1.000000000000000000 ) ) ;
#72 = CC_DESIGN_APPROVAL ( #60, ( #33 ) ) ;
#73 = AXIS2_PLACEMENT_3D ( 'NONE', #27, #87, #45 ) ;
#74 = ORIENTED_EDGE ( 'NONE', *, *, #143, .T. ) ;
#75 = PERSON_AND_ORGANIZATION ( #86, #43 ) ;
#76 = DIRECTION ( 'NONE',  ( 0.0000000000000000000, 0.0000000000000000000, 1.000000000000000000 ) ) ;
#77 = CALENDAR_DATE ( 2017, 22, 5 ) ;
#78 = AXIS2_PLACEMENT_3D ( 'NONE', #155, #41, #7 ) ;
#79 = DATE_AND_TIME ( #77, #106 ) ;
#80 = CARTESIAN_POINT ( 'NONE',  ( 0.0000000000000000000, 0.0000000000000000000, 0.0000000000000000000 ) ) ;
#81 = AXIS2_PLACEMENT_3D ( 'NONE', #134, #29, #175 ) ;
#82 = MANIFOLD_SOLID_BREP ( 'Boss-Extrude1', #144 ) ;
#83 = CC_DESIGN_SECURITY_CLASSIFICATION ( #33, ( #170 ) ) ;
#84 = DATE_AND_TIME ( #70, #63 ) ;
#85 = CALENDAR_DATE ( 2017, 22, 5 ) ;
#86 = PERSON ( 'UNSPECIFIED', 'UNSPECIFIED', 'UNSPECIFIED', ('UNSPECIFIED'), ('UNSPECIFIED'), ('UNSPECIFIED') ) ;
#87 = DIRECTION ( 'NONE',  ( 0.0000000000000000000, 0.0000000000000000000, 1.000000000000000000 ) ) ;
#88 = DATE_AND_TIME ( #85, #68 ) ;
#89 = DIRECTION ( 'NONE',  ( -0.0000000000000000000, -0.0000000000000000000, -1.000000000000000000 ) ) ;
#90 = AXIS2_PLACEMENT_3D ( 'NONE', #137, #23, #13 ) ;
#91 = PERSON_AND_ORGANIZATION ( #86, #43 ) ;
#92 = APPROVAL_STATUS ( 'not_yet_approved' ) ;
#93 = DIRECTION ( 'NONE',  ( -0.0000000000000000000, -0.0000000000000000000, -1.000000000000000000 ) ) ;
#94 = SHAPE_DEFINITION_REPRESENTATION ( #167, #135 ) ;
#95 = PRODUCT_RELATED_PRODUCT_CATEGORY ( 'detail', '', ( #118 ) ) ;
#96 = VECTOR ( 'NONE', #44, 1000.000000000000000 ) ;
#97 = COORDINATED_UNIVERSAL_TIME_OFFSET ( 7, 0, .BEHIND. ) ;
#98 = COORDINATED_UNIVERSAL_TIME_OFFSET ( 7, 0, .BEHIND. ) ;
#99 = DATE_AND_TIME ( #64, #101 ) ;
#100 = COORDINATED_UNIVERSAL_TIME_OFFSET ( 7, 0, .BEHIND. ) ;
#101 = LOCAL_TIME ( 13, 25, 53.00000000000000000, #98 ) ;
#102 = FACE_OUTER_BOUND ( 'NONE', #110, .T. ) ;
#103 = AXIS2_PLACEMENT_3D ( 'NONE', #71, #89, #18 ) ;
#104 = APPROVAL_PERSON_ORGANIZATION ( #65, #4, #28 ) ;
#105 = FACE_OUTER_BOUND ( 'NONE', #58, .T. ) ;
#106 = LOCAL_TIME ( 13, 25, 53.00000000000000000, #174 ) ;
#107 = APPLICATION_PROTOCOL_DEFINITION ( 'international standard', 'config_control_design', 1994, #15 ) ;
#108 = CARTESIAN_POINT ( 'NONE',  ( 0.0000000000000000000, 0.0000000000000000000, 0.0000000000000000000 ) ) ;
#109 = APPROVAL_DATE_TIME ( #116, #141 ) ;
#110 = EDGE_LOOP ( 'NONE', ( #129, #74, #62, #159 ) ) ;
#111 = PERSON_AND_ORGANIZATION_ROLE ( 'creator' ) ;
#112 = CALENDAR_DATE ( 2017, 22, 5 ) ;
#113 = AXIS2_PLACEMENT_3D ( 'NONE', #12, #59, #53 ) ;
#114 = SECURITY_CLASSIFICATION_LEVEL ( 'unclassified' ) ;
#115 = LOCAL_TIME ( 13, 25, 53.00000000000000000, #123 ) ;
#116 = DATE_AND_TIME ( #112, #115 ) ;
#117 = ADVANCED_FACE ( 'NONE', ( #162 ), #24, .T. ) ;
#118 = PRODUCT ( 'step_35933', 'step_35933', '', ( #21 ) ) ;
#119 = PERSON_AND_ORGANIZATION ( #86, #43 ) ;
#120 = CC_DESIGN_PERSON_AND_ORGANIZATION_ASSIGNMENT ( #34, #139, ( #118 ) ) ;
#121 = ADVANCED_FACE ( 'NONE', ( #102 ), #30, .T. ) ;
#122 = APPROVAL_STATUS ( 'not_yet_approved' ) ;
#123 = COORDINATED_UNIVERSAL_TIME_OFFSET ( 7, 0, .BEHIND. ) ;
#124 = PERSON_AND_ORGANIZATION_ROLE ( 'creator' ) ;
#125 = PERSON_AND_ORGANIZATION ( #86, #43 ) ;
#126 = DIRECTION ( 'NONE',  ( 1.000000000000000000, 0.0000000000000000000, -0.0000000000000000000 ) ) ;
#127 = VERTEX_POINT ( 'NONE', #138 ) ;
#128 = DATE_TIME_ROLE ( 'creation_date' ) ;
#129 = ORIENTED_EDGE ( 'NONE', *, *, #56, .F. ) ;
#130 = PRODUCT_DEFINITION ( 'UNKNOWN', '', #170, #52 ) ;
#131 = ADVANCED_FACE ( 'NONE', ( #173 ), #148, .F. ) ;
#132 = ADVANCED_FACE ( 'NONE', ( #105 ), #6, .T. ) ;
#133 = VERTEX_POINT ( 'NONE', #163 ) ;
#134 = CARTESIAN_POINT ( 'NONE',  ( 0.0000000000000000000, 0.0000000000000000000, 1.000000000000000000 ) ) ;
#135 = ADVANCED_BREP_SHAPE_REPRESENTATION ( 'step_35933', ( #82, #113 ), #35 ) ;
#136 = CARTESIAN_POINT ( 'NONE',  ( 12.50000000000000000, 1.530808498934191500E-015, 1.000000000000000000 ) ) ;
#137 = CARTESIAN_POINT ( 'NONE',  ( 0.0000000000000000000, 0.0000000000000000000, 1.000000000000000000 ) ) ;
#138 = CARTESIAN_POINT ( 'NONE',  ( -12.50000000000000000, 0.0000000000000000000, 0.0000000000000000000 ) ) ;
#139 = PERSON_AND_ORGANIZATION_ROLE ( 'design_owner' ) ;
#140 = CARTESIAN_POINT ( 'NONE',  ( -12.50000000000000000, 0.0000000000000000000, 1.000000000000000000 ) ) ;
#141 = APPROVAL ( #92, 'UNSPECIFIED' ) ;
#142 = VERTEX_POINT ( 'NONE', #140 ) ;
#143 = EDGE_CURVE ( 'NONE', #133, #154, #166, .T. ) ;
#144 = CLOSED_SHELL ( 'NONE', ( #121, #117, #132, #131 ) ) ;
#145 = LINE ( 'NONE', #19, #96 ) ;
#146 = CC_DESIGN_APPROVAL ( #141, ( #130 ) ) ;
#147 = EDGE_CURVE ( 'NONE', #154, #127, #36, .T. ) ;
#148 = PLANE ( 'NONE',  #49 ) ;
#149 = EDGE_LOOP ( 'NONE', ( #152, #158, #151, #20 ) ) ;
#150 =( NAMED_UNIT ( * ) SI_UNIT ( $, .STERADIAN. ) SOLID_ANGLE_UNIT ( ) );
#151 = ORIENTED_EDGE ( 'NONE', *, *, #61, .T. ) ;
#152 = ORIENTED_EDGE ( 'NONE', *, *, #143, .F. ) ;
#153 = ORIENTED_EDGE ( 'NONE', *, *, #56, .T. ) ;
#154 = VERTEX_POINT ( 'NONE', #48 ) ;
#155 = CARTESIAN_POINT ( 'NONE',  ( 0.0000000000000000000, 0.0000000000000000000, 0.0000000000000000000 ) ) ;
#156 = EDGE_LOOP ( 'NONE', ( #42, #160 ) ) ;
#157 = DIRECTION ( 'NONE',  ( 0.0000000000000000000, 0.0000000000000000000, 1.000000000000000000 ) ) ;
#158 = ORIENTED_EDGE ( 'NONE', *, *, #67, .F. ) ;
#159 = ORIENTED_EDGE ( 'NONE', *, *, #61, .F. ) ;
#160 = ORIENTED_EDGE ( 'NONE', *, *, #147, .F. ) ;
#161 = CC_DESIGN_PERSON_AND_ORGANIZATION_ASSIGNMENT ( #119, #111, ( #130 ) ) ;
#162 = FACE_OUTER_BOUND ( 'NONE', #149, .T. ) ;
#163 = CARTESIAN_POINT ( 'NONE',  ( 12.50000000000000000, 1.530808498934191500E-015, 1.000000000000000000 ) ) ;
#164 = DIRECTION ( 'NONE',  ( 1.000000000000000000, 0.0000000000000000000, -0.0000000000000000000 ) ) ;
#165 = CC_DESIGN_DATE_AND_TIME_ASSIGNMENT ( #79, #128, ( #130 ) ) ;
#166 = LINE ( 'NONE', #136, #171 ) ;
#167 = PRODUCT_DEFINITION_SHAPE ( 'NONE', 'NONE',  #130 ) ;
#168 = PERSON_AND_ORGANIZATION ( #86, #43 ) ;
#169 = PERSON_AND_ORGANIZATION ( #86, #43 ) ;
#170 = PRODUCT_DEFINITION_FORMATION_WITH_SPECIFIED_SOURCE ( 'ANY', '', #118, .NOT_KNOWN. ) ;
#171 = VECTOR ( 'NONE', #93, 1000.000000000000000 ) ;
#172 = APPLICATION_PROTOCOL_DEFINITION ( 'international standard', 'config_control_design', 1994, #22 ) ;
#173 = FACE_OUTER_BOUND ( 'NONE', #156, .T. ) ;
#174 = COORDINATED_UNIVERSAL_TIME_OFFSET ( 7, 0, .BEHIND. ) ;
#175 = DIRECTION ( 'NONE',  ( 1.000000000000000000, 0.0000000000000000000, 0.0000000000000000000 ) ) ;
ENDSEC;
END-ISO-10303-21;
