ISO-10303-21;
HEADER;
FILE_DESCRIPTION (( 'STEP AP214' ),
    '1' );
FILE_NAME ('4459-E0W.STEP',
    '2009-12-21T17:02:21',
    ( ' ' ),
    ( ' ' ),
    'SwSTEP 2.0',
    'SolidWorks 2009',
    '' );
FILE_SCHEMA (( 'AUTOMOTIVE_DESIGN' ));
ENDSEC;

DATA;
#1 =( NAMED_UNIT ( * ) SI_UNIT ( $, .STERADIAN. ) SOLID_ANGLE_UNIT ( ) );
#2 = UNCERTAINTY_MEASURE_WITH_UNIT (LENGTH_MEASURE( 1.000000000000000100E-005 ), #230, 'distance_accuracy_value', 'NONE');
#3 =( GEOMETRIC_REPRESENTATION_CONTEXT ( 3 ) GLOBAL_UNCERTAINTY_ASSIGNED_CONTEXT ( ( #2 ) ) GLOBAL_UNIT_ASSIGNED_CONTEXT ( ( #230, #229, #1 ) ) REPRESENTATION_CONTEXT ( 'NONE', 'WORKASPACE' ) );
#4 =( GEOMETRIC_REPRESENTATION_CONTEXT ( 3 ) GLOBAL_UNCERTAINTY_ASSIGNED_CONTEXT ( ( #74 ) ) GLOBAL_UNIT_ASSIGNED_CONTEXT ( ( #55, #61, #75 ) ) REPRESENTATION_CONTEXT ( 'NONE', 'WORKASPACE' ) );
#5 = CARTESIAN_POINT ( 'NONE',  ( 0.0000000000000000000, 0.0000000000000000000, -126.0100000000000100 ) ) ;
#6 = AXIS2_PLACEMENT_3D ( 'NONE', #5, #9, #8 ) ;
#7 = SPHERICAL_SURFACE ( 'NONE', #6, 128.7700000000000100 ) ;
#8 = DIRECTION ( 'NONE',  ( 0.0000000000000000000, 1.000000000000000000, 0.0000000000000000000 ) ) ;
#9 = DIRECTION ( 'NONE',  ( -1.000000000000000000, 0.0000000000000000000, 0.0000000000000000000 ) ) ;
#10 = DIRECTION ( 'NONE',  ( -0.0000000000000000000, -0.0000000000000000000, 1.000000000000000000 ) ) ;
#11 =( LENGTH_UNIT ( ) NAMED_UNIT ( * ) SI_UNIT ( .MILLI., .METRE. ) );
#12 = MECHANICAL_DESIGN_GEOMETRIC_PRESENTATION_REPRESENTATION (  '', ( #14 ), #4 ) ;
#13 = PRESENTATION_LAYER_ASSIGNMENT (  '', '', ( #14 ) ) ;
#14 = STYLED_ITEM ( 'NONE', ( #18 ), #211 ) ;
#15 = PRESENTATION_LAYER_ASSIGNMENT (  '', '', ( #16 ) ) ;
#16 = STYLED_ITEM ( 'NONE', ( #69 ), #199 ) ;
#17 = DIRECTION ( 'NONE',  ( -1.224606353822377300E-016, -1.000000000000000000, 0.0000000000000000000 ) ) ;
#18 = PRESENTATION_STYLE_ASSIGNMENT (( #19 ) ) ;
#19 = SURFACE_STYLE_USAGE ( .BOTH. , #20 ) ;
#20 = SURFACE_SIDE_STYLE ('',( #21 ) ) ;
#21 = SURFACE_STYLE_FILL_AREA ( #37 ) ;
#22 = PRESENTATION_LAYER_ASSIGNMENT (  '', '', ( #23 ) ) ;
#23 = STYLED_ITEM ( 'NONE', ( #24 ), #210 ) ;
#24 = PRESENTATION_STYLE_ASSIGNMENT (( #25 ) ) ;
#25 = SURFACE_STYLE_USAGE ( .BOTH. , #44 ) ;
#26 = DIRECTION ( 'NONE',  ( -0.0000000000000000000, -0.0000000000000000000, 1.000000000000000000 ) ) ;
#27 = CARTESIAN_POINT ( 'NONE',  ( 0.0000000000000000000, 0.0000000000000000000, -2.760000000000000200 ) ) ;
#28 = AXIS2_PLACEMENT_3D ( 'NONE', #27, #26, #58 ) ;
#29 = CARTESIAN_POINT ( 'NONE',  ( -3.110500138708840900E-015, -25.40000000000002000, 0.2300605988447830300 ) ) ;
#30 = AXIS2_PLACEMENT_3D ( 'NONE', #59, #43, #17 ) ;
#31 = AXIS2_PLACEMENT_3D ( 'NONE', #42, #10, #65 ) ;
#32 =( LENGTH_UNIT ( ) NAMED_UNIT ( * ) SI_UNIT ( .MILLI., .METRE. ) );
#33 = MECHANICAL_DESIGN_GEOMETRIC_PRESENTATION_REPRESENTATION (  '', ( #23 ), #49 ) ;
#34 = CARTESIAN_POINT ( 'NONE',  ( 0.0000000000000000000, 7.884628009085377400E-015, 2.760000000000012200 ) ) ;
#35 = FACE_OUTER_BOUND ( 'NONE', #200, .T. ) ;
#36 = COLOUR_RGB ( '',0.9568627450980391500, 0.9490196078431372100, 0.9607843137254902200 ) ;
#37 = FILL_AREA_STYLE ('',( #38 ) ) ;
#38 = FILL_AREA_STYLE_COLOUR ( '', #39 ) ;
#39 = COLOUR_RGB ( '',0.9568627450980391500, 0.9490196078431372100, 0.9607843137254902200 ) ;
#40 = FACE_OUTER_BOUND ( 'NONE', #228, .T. ) ;
#41 =( NAMED_UNIT ( * ) SI_UNIT ( $, .STERADIAN. ) SOLID_ANGLE_UNIT ( ) );
#42 = CARTESIAN_POINT ( 'NONE',  ( 0.0000000000000000000, 0.0000000000000000000, 0.2300605988447826100 ) ) ;
#43 = DIRECTION ( 'NONE',  ( -1.000000000000000000, 1.224606353822377300E-016, 0.0000000000000000000 ) ) ;
#44 = SURFACE_SIDE_STYLE ('',( #45 ) ) ;
#45 = SURFACE_STYLE_FILL_AREA ( #46 ) ;
#46 = FILL_AREA_STYLE ('',( #47 ) ) ;
#47 = FILL_AREA_STYLE_COLOUR ( '', #56 ) ;
#48 = CIRCLE ( 'NONE', #30, 128.7700000000000100 ) ;
#49 =( GEOMETRIC_REPRESENTATION_CONTEXT ( 3 ) GLOBAL_UNCERTAINTY_ASSIGNED_CONTEXT ( ( #77 ) ) GLOBAL_UNIT_ASSIGNED_CONTEXT ( ( #32, #60, #78 ) ) REPRESENTATION_CONTEXT ( 'NONE', 'WORKASPACE' ) );
#50 = FILL_AREA_STYLE ('',( #51 ) ) ;
#51 = FILL_AREA_STYLE_COLOUR ( '', #36 ) ;
#52 = DIRECTION ( 'NONE',  ( 1.000000000000000000, 0.0000000000000000000, 0.0000000000000000000 ) ) ;
#53 = DIRECTION ( 'NONE',  ( 0.0000000000000000000, -0.0000000000000000000, 1.000000000000000000 ) ) ;
#54 = CIRCLE ( 'NONE', #28, 25.39999999999999900 ) ;
#55 =( LENGTH_UNIT ( ) NAMED_UNIT ( * ) SI_UNIT ( .MILLI., .METRE. ) );
#56 = COLOUR_RGB ( '',0.7960784313725489700, 0.8235294117647058400, 0.9372549019607843100 ) ;
#57 = CARTESIAN_POINT ( 'NONE',  ( 25.39999999999999900, 0.0000000000000000000, -2.760000000000000200 ) ) ;
#58 = DIRECTION ( 'NONE',  ( 1.000000000000000000, 0.0000000000000000000, 0.0000000000000000000 ) ) ;
#59 = CARTESIAN_POINT ( 'NONE',  ( 0.0000000000000000000, 0.0000000000000000000, -126.0100000000000100 ) ) ;
#60 =( NAMED_UNIT ( * ) PLANE_ANGLE_UNIT ( ) SI_UNIT ( $, .RADIAN. ) );
#61 =( NAMED_UNIT ( * ) PLANE_ANGLE_UNIT ( ) SI_UNIT ( $, .RADIAN. ) );
#62 = CIRCLE ( 'NONE', #31, 25.39999999999999900 ) ;
#63 = UNCERTAINTY_MEASURE_WITH_UNIT (LENGTH_MEASURE( 1.000000000000000100E-005 ), #11, 'distance_accuracy_value', 'NONE');
#64 =( GEOMETRIC_REPRESENTATION_CONTEXT ( 3 ) GLOBAL_UNCERTAINTY_ASSIGNED_CONTEXT ( ( #63 ) ) GLOBAL_UNIT_ASSIGNED_CONTEXT ( ( #11, #76, #41 ) ) REPRESENTATION_CONTEXT ( 'NONE', 'WORKASPACE' ) );
#65 = DIRECTION ( 'NONE',  ( 1.000000000000000000, 0.0000000000000000000, 0.0000000000000000000 ) ) ;
#66 = SURFACE_SIDE_STYLE ('',( #67 ) ) ;
#67 = SURFACE_STYLE_FILL_AREA ( #50 ) ;
#68 = MECHANICAL_DESIGN_GEOMETRIC_PRESENTATION_REPRESENTATION (  '', ( #16 ), #64 ) ;
#69 = PRESENTATION_STYLE_ASSIGNMENT (( #70 ) ) ;
#70 = SURFACE_STYLE_USAGE ( .BOTH. , #66 ) ;
#71 = CARTESIAN_POINT ( 'NONE',  ( 0.0000000000000000000, 1.014007549694008500E-015, -2.759999999999999800 ) ) ;
#72 = AXIS2_PLACEMENT_3D ( 'NONE', #71, #53, #52 ) ;
#73 = PLANE ( 'NONE',  #72 ) ;
#74 = UNCERTAINTY_MEASURE_WITH_UNIT (LENGTH_MEASURE( 1.000000000000000100E-005 ), #55, 'distance_accuracy_value', 'NONE');
#75 =( NAMED_UNIT ( * ) SI_UNIT ( $, .STERADIAN. ) SOLID_ANGLE_UNIT ( ) );
#76 =( NAMED_UNIT ( * ) PLANE_ANGLE_UNIT ( ) SI_UNIT ( $, .RADIAN. ) );
#77 = UNCERTAINTY_MEASURE_WITH_UNIT (LENGTH_MEASURE( 1.000000000000000100E-005 ), #32, 'distance_accuracy_value', 'NONE');
#78 =( NAMED_UNIT ( * ) SI_UNIT ( $, .STERADIAN. ) SOLID_ANGLE_UNIT ( ) );
#79 = SURFACE_SIDE_STYLE ('',( #80 ) ) ;
#80 = SURFACE_STYLE_FILL_AREA ( #94 ) ;
#81 = AXIS2_PLACEMENT_3D ( 'NONE', #107, #106, #88 ) ;
#82 = FACE_OUTER_BOUND ( 'NONE', #218, .T. ) ;
#83 =( NAMED_UNIT ( * ) PLANE_ANGLE_UNIT ( ) SI_UNIT ( $, .RADIAN. ) );
#84 = CIRCLE ( 'NONE', #90, 25.39999999999999900 ) ;
#85 =( LENGTH_UNIT ( ) NAMED_UNIT ( * ) SI_UNIT ( .MILLI., .METRE. ) );
#86 = MECHANICAL_DESIGN_GEOMETRIC_PRESENTATION_REPRESENTATION (  '', ( #87 ), #104 ) ;
#87 = STYLED_ITEM ( 'NONE', ( #101 ), #217 ) ;
#88 = DIRECTION ( 'NONE',  ( 0.0000000000000000000, 1.000000000000000000, 0.0000000000000000000 ) ) ;
#89 =( NAMED_UNIT ( * ) SI_UNIT ( $, .STERADIAN. ) SOLID_ANGLE_UNIT ( ) );
#90 = AXIS2_PLACEMENT_3D ( 'NONE', #93, #123, #125 ) ;
#91 = CARTESIAN_POINT ( 'NONE',  ( 0.0000000000000000000, 0.0000000000000000000, 4.308132045400366600 ) ) ;
#92 = CYLINDRICAL_SURFACE ( 'NONE', #112, 25.39999999999999900 ) ;
#93 = CARTESIAN_POINT ( 'NONE',  ( 0.0000000000000000000, 0.0000000000000000000, 0.2300605988447826100 ) ) ;
#94 = FILL_AREA_STYLE ('',( #95 ) ) ;
#95 = FILL_AREA_STYLE_COLOUR ( '', #124 ) ;
#96 = MECHANICAL_DESIGN_GEOMETRIC_PRESENTATION_REPRESENTATION (  '', ( #98 ), #105 ) ;
#97 = PRESENTATION_LAYER_ASSIGNMENT (  '', '', ( #98 ) ) ;
#98 = STYLED_ITEM ( 'NONE', ( #99 ), #219 ) ;
#99 = PRESENTATION_STYLE_ASSIGNMENT (( #100 ) ) ;
#100 = SURFACE_STYLE_USAGE ( .BOTH. , #115 ) ;
#101 = PRESENTATION_STYLE_ASSIGNMENT (( #102 ) ) ;
#102 = SURFACE_STYLE_USAGE ( .BOTH. , #79 ) ;
#103 = UNCERTAINTY_MEASURE_WITH_UNIT (LENGTH_MEASURE( 1.000000000000000100E-005 ), #85, 'distance_accuracy_value', 'NONE');
#104 =( GEOMETRIC_REPRESENTATION_CONTEXT ( 3 ) GLOBAL_UNCERTAINTY_ASSIGNED_CONTEXT ( ( #103 ) ) GLOBAL_UNIT_ASSIGNED_CONTEXT ( ( #85, #110, #89 ) ) REPRESENTATION_CONTEXT ( 'NONE', 'WORKASPACE' ) );
#105 =( GEOMETRIC_REPRESENTATION_CONTEXT ( 3 ) GLOBAL_UNCERTAINTY_ASSIGNED_CONTEXT ( ( #120 ) ) GLOBAL_UNIT_ASSIGNED_CONTEXT ( ( #122, #83, #121 ) ) REPRESENTATION_CONTEXT ( 'NONE', 'WORKASPACE' ) );
#106 = DIRECTION ( 'NONE',  ( -1.000000000000000000, 0.0000000000000000000, 0.0000000000000000000 ) ) ;
#107 = CARTESIAN_POINT ( 'NONE',  ( 0.0000000000000000000, 0.0000000000000000000, -126.0100000000000100 ) ) ;
#108 = PRESENTATION_LAYER_ASSIGNMENT (  '', '', ( #87 ) ) ;
#109 = SPHERICAL_SURFACE ( 'NONE', #81, 128.7700000000000100 ) ;
#110 =( NAMED_UNIT ( * ) PLANE_ANGLE_UNIT ( ) SI_UNIT ( $, .RADIAN. ) );
#111 = DIRECTION ( 'NONE',  ( -0.0000000000000000000, -0.0000000000000000000, 1.000000000000000000 ) ) ;
#112 = AXIS2_PLACEMENT_3D ( 'NONE', #91, #111, #119 ) ;
#113 = COLOUR_RGB ( '',0.9568627450980391500, 0.9490196078431372100, 0.9607843137254902200 ) ;
#114 = FACE_OUTER_BOUND ( 'NONE', #220, .T. ) ;
#115 = SURFACE_SIDE_STYLE ('',( #116 ) ) ;
#116 = SURFACE_STYLE_FILL_AREA ( #117 ) ;
#117 = FILL_AREA_STYLE ('',( #118 ) ) ;
#118 = FILL_AREA_STYLE_COLOUR ( '', #113 ) ;
#119 = DIRECTION ( 'NONE',  ( 1.000000000000000000, 0.0000000000000000000, 0.0000000000000000000 ) ) ;
#120 = UNCERTAINTY_MEASURE_WITH_UNIT (LENGTH_MEASURE( 1.000000000000000100E-005 ), #122, 'distance_accuracy_value', 'NONE');
#121 =( NAMED_UNIT ( * ) SI_UNIT ( $, .STERADIAN. ) SOLID_ANGLE_UNIT ( ) );
#122 =( LENGTH_UNIT ( ) NAMED_UNIT ( * ) SI_UNIT ( .MILLI., .METRE. ) );
#123 = DIRECTION ( 'NONE',  ( -0.0000000000000000000, -0.0000000000000000000, 1.000000000000000000 ) ) ;
#124 = COLOUR_RGB ( '',0.9568627450980391500, 0.9490196078431372100, 0.9607843137254902200 ) ;
#125 = DIRECTION ( 'NONE',  ( 1.000000000000000000, 0.0000000000000000000, 0.0000000000000000000 ) ) ;
#126 =( NAMED_UNIT ( * ) SI_UNIT ( $, .STERADIAN. ) SOLID_ANGLE_UNIT ( ) );
#127 = UNCERTAINTY_MEASURE_WITH_UNIT (LENGTH_MEASURE( 1.000000000000000100E-005 ), #148, 'distance_accuracy_value', 'NONE');
#128 = CARTESIAN_POINT ( 'NONE',  ( -25.39999999999999900, 3.110500138708838200E-015, -2.760000000000000200 ) ) ;
#129 = FILL_AREA_STYLE_COLOUR ( '', #130 ) ;
#130 = COLOUR_RGB ( '',0.7960784313725489700, 0.8235294117647058400, 0.9372549019607843100 ) ;
#131 = STYLED_ITEM ( 'NONE', ( #132 ), #154 ) ;
#132 = PRESENTATION_STYLE_ASSIGNMENT (( #133 ) ) ;
#133 = SURFACE_STYLE_USAGE ( .BOTH. , #163 ) ;
#134 = DIRECTION ( 'NONE',  ( 1.000000000000000000, 0.0000000000000000000, 0.0000000000000000000 ) ) ;
#135 = AXIS2_PLACEMENT_3D ( 'NONE', #144, #134, #160 ) ;
#136 = AXIS2_PLACEMENT_3D ( 'NONE', #153, #152, #155 ) ;
#137 = DIRECTION ( 'NONE',  ( 1.000000000000000000, 0.0000000000000000000, 0.0000000000000000000 ) ) ;
#138 = DIRECTION ( 'NONE',  ( 0.0000000000000000000, 0.0000000000000000000, 1.000000000000000000 ) ) ;
#139 = CYLINDRICAL_SURFACE ( 'NONE', #166, 25.39999999999999900 ) ;
#140 = MECHANICAL_DESIGN_GEOMETRIC_PRESENTATION_REPRESENTATION (  '', ( #131 ), #149 ) ;
#141 = PRESENTATION_LAYER_ASSIGNMENT (  '', '', ( #131 ) ) ;
#142 = CIRCLE ( 'NONE', #136, 25.39999999999999900 ) ;
#143 =( GEOMETRIC_REPRESENTATION_CONTEXT ( 3 ) GLOBAL_UNCERTAINTY_ASSIGNED_CONTEXT ( ( #161 ) ) GLOBAL_UNIT_ASSIGNED_CONTEXT ( ( #156, #157, #126 ) ) REPRESENTATION_CONTEXT ( 'NONE', 'WORKASPACE' ) );
#144 = CARTESIAN_POINT ( 'NONE',  ( 0.0000000000000000000, 0.0000000000000000000, -126.0100000000000100 ) ) ;
#145 = CIRCLE ( 'NONE', #135, 128.7699999999999800 ) ;
#146 =( NAMED_UNIT ( * ) SI_UNIT ( $, .STERADIAN. ) SOLID_ANGLE_UNIT ( ) );
#147 = AXIS2_PLACEMENT_3D ( 'NONE', #162, #138, #137 ) ;
#148 =( LENGTH_UNIT ( ) NAMED_UNIT ( * ) SI_UNIT ( .MILLI., .METRE. ) );
#149 =( GEOMETRIC_REPRESENTATION_CONTEXT ( 3 ) GLOBAL_UNCERTAINTY_ASSIGNED_CONTEXT ( ( #127 ) ) GLOBAL_UNIT_ASSIGNED_CONTEXT ( ( #148, #151, #146 ) ) REPRESENTATION_CONTEXT ( 'NONE', 'WORKASPACE' ) );
#150 = DIRECTION ( 'NONE',  ( 1.000000000000000000, 0.0000000000000000000, 0.0000000000000000000 ) ) ;
#151 =( NAMED_UNIT ( * ) PLANE_ANGLE_UNIT ( ) SI_UNIT ( $, .RADIAN. ) );
#152 = DIRECTION ( 'NONE',  ( -0.0000000000000000000, -0.0000000000000000000, 1.000000000000000000 ) ) ;
#153 = CARTESIAN_POINT ( 'NONE',  ( 0.0000000000000000000, 0.0000000000000000000, -2.760000000000000200 ) ) ;
#154 = ADVANCED_BREP_SHAPE_REPRESENTATION ( '4459-E0W', ( #210, #147 ), #143 ) ;
#155 = DIRECTION ( 'NONE',  ( 1.000000000000000000, 0.0000000000000000000, 0.0000000000000000000 ) ) ;
#156 =( LENGTH_UNIT ( ) NAMED_UNIT ( * ) SI_UNIT ( .MILLI., .METRE. ) );
#157 =( NAMED_UNIT ( * ) PLANE_ANGLE_UNIT ( ) SI_UNIT ( $, .RADIAN. ) );
#158 = DIRECTION ( 'NONE',  ( -0.0000000000000000000, -0.0000000000000000000, 1.000000000000000000 ) ) ;
#159 = CARTESIAN_POINT ( 'NONE',  ( 0.0000000000000000000, 0.0000000000000000000, 4.308132045400366600 ) ) ;
#160 = DIRECTION ( 'NONE',  ( 0.0000000000000000000, 0.0000000000000000000, -1.000000000000000000 ) ) ;
#161 = UNCERTAINTY_MEASURE_WITH_UNIT (LENGTH_MEASURE( 1.000000000000000100E-005 ), #156, 'distance_accuracy_value', 'NONE');
#162 = CARTESIAN_POINT ( 'NONE',  ( 0.0000000000000000000, 0.0000000000000000000, 0.0000000000000000000 ) ) ;
#163 = SURFACE_SIDE_STYLE ('',( #164 ) ) ;
#164 = SURFACE_STYLE_FILL_AREA ( #165 ) ;
#165 = FILL_AREA_STYLE ('',( #129 ) ) ;
#166 = AXIS2_PLACEMENT_3D ( 'NONE', #159, #158, #150 ) ;
#167 = PRODUCT_RELATED_PRODUCT_CATEGORY ( 'part', '', ( #172 ) ) ;
#168 = SHAPE_DEFINITION_REPRESENTATION ( #173, #154 ) ;
#169 = APPLICATION_CONTEXT ( 'automotive_design' ) ;
#170 = APPLICATION_PROTOCOL_DEFINITION ( 'draft international standard', 'automotive_design', 1998, #171 ) ;
#171 = APPLICATION_CONTEXT ( 'automotive_design' ) ;
#172 = PRODUCT ( '4459-E0W', '4459-E0W', '', ( #177 ) ) ;
#173 = PRODUCT_DEFINITION_SHAPE ( 'NONE', 'NONE',  #175 ) ;
#174 = PRODUCT_DEFINITION_FORMATION_WITH_SPECIFIED_SOURCE ( 'ANY', '', #172, .NOT_KNOWN. ) ;
#175 = PRODUCT_DEFINITION ( 'UNKNOWN', '', #174, #176 ) ;
#176 = PRODUCT_DEFINITION_CONTEXT ( 'detailed design', #171, 'design' ) ;
#177 = PRODUCT_CONTEXT ( 'NONE', #169, 'mechanical' ) ;
#178 = APPLICATION_PROTOCOL_DEFINITION ( 'draft international standard', 'automotive_design', 1998, #169 ) ;
#179 = ORIENTED_EDGE ( 'NONE', *, *, #180, .T. ) ;
#180 = EDGE_CURVE ( 'NONE', #224, #181, #225, .T. ) ;
#181 = VERTEX_POINT ( 'NONE', #258 ) ;
#182 = ORIENTED_EDGE ( 'NONE', *, *, #183, .F. ) ;
#183 = EDGE_CURVE ( 'NONE', #184, #181, #257, .T. ) ;
#184 = VERTEX_POINT ( 'NONE', #252 ) ;
#185 = ORIENTED_EDGE ( 'NONE', *, *, #186, .F. ) ;
#186 = EDGE_CURVE ( 'NONE', #187, #184, #251, .T. ) ;
#187 = VERTEX_POINT ( 'NONE', #246 ) ;
#188 = ORIENTED_EDGE ( 'NONE', *, *, #189, .F. ) ;
#189 = EDGE_CURVE ( 'NONE', #209, #187, #244, .T. ) ;
#190 = ADVANCED_FACE ( 'NONE', ( #240 ), #7, .T. ) ;
#191 = EDGE_LOOP ( 'NONE', ( #192, #193, #196, #226 ) ) ;
#192 = ORIENTED_EDGE ( 'NONE', *, *, #183, .T. ) ;
#193 = ORIENTED_EDGE ( 'NONE', *, *, #194, .T. ) ;
#194 = EDGE_CURVE ( 'NONE', #181, #195, #62, .T. ) ;
#195 = VERTEX_POINT ( 'NONE', #29 ) ;
#196 = ORIENTED_EDGE ( 'NONE', *, *, #197, .T. ) ;
#197 = EDGE_CURVE ( 'NONE', #195, #198, #48, .T. ) ;
#198 = VERTEX_POINT ( 'NONE', #34 ) ;
#199 = ADVANCED_FACE ( 'NONE', ( #35 ), #73, .F. ) ;
#200 = EDGE_LOOP ( 'NONE', ( #201, #202 ) ) ;
#201 = ORIENTED_EDGE ( 'NONE', *, *, #208, .F. ) ;
#202 = ORIENTED_EDGE ( 'NONE', *, *, #223, .F. ) ;
#203 = CLOSED_SHELL ( 'NONE', ( #219, #190, #211, #217, #199 ) ) ;
#204 = ORIENTED_EDGE ( 'NONE', *, *, #189, .T. ) ;
#205 = ORIENTED_EDGE ( 'NONE', *, *, #214, .F. ) ;
#206 = ORIENTED_EDGE ( 'NONE', *, *, #194, .F. ) ;
#207 = ORIENTED_EDGE ( 'NONE', *, *, #208, .T. ) ;
#208 = EDGE_CURVE ( 'NONE', #209, #224, #54, .T. ) ;
#209 = VERTEX_POINT ( 'NONE', #57 ) ;
#210 = MANIFOLD_SOLID_BREP ( 'NONE', #203 ) ;
#211 = ADVANCED_FACE ( 'NONE', ( #40 ), #109, .T. ) ;
#212 = ORIENTED_EDGE ( 'NONE', *, *, #197, .F. ) ;
#213 = ORIENTED_EDGE ( 'NONE', *, *, #214, .T. ) ;
#214 = EDGE_CURVE ( 'NONE', #195, #187, #84, .T. ) ;
#215 = ORIENTED_EDGE ( 'NONE', *, *, #186, .T. ) ;
#216 = ORIENTED_EDGE ( 'NONE', *, *, #227, .T. ) ;
#217 = ADVANCED_FACE ( 'NONE', ( #82 ), #92, .T. ) ;
#218 = EDGE_LOOP ( 'NONE', ( #221, #222, #204, #205, #206 ) ) ;
#219 = ADVANCED_FACE ( 'NONE', ( #114 ), #139, .T. ) ;
#220 = EDGE_LOOP ( 'NONE', ( #207, #179, #182, #185, #188 ) ) ;
#221 = ORIENTED_EDGE ( 'NONE', *, *, #180, .F. ) ;
#222 = ORIENTED_EDGE ( 'NONE', *, *, #223, .T. ) ;
#223 = EDGE_CURVE ( 'NONE', #224, #209, #142, .T. ) ;
#224 = VERTEX_POINT ( 'NONE', #128 ) ;
#225 = LINE ( 'NONE', #261, #260 ) ;
#226 = ORIENTED_EDGE ( 'NONE', *, *, #227, .F. ) ;
#227 = EDGE_CURVE ( 'NONE', #184, #198, #145, .T. ) ;
#228 = EDGE_LOOP ( 'NONE', ( #212, #213, #215, #216 ) ) ;
#229 =( NAMED_UNIT ( * ) PLANE_ANGLE_UNIT ( ) SI_UNIT ( $, .RADIAN. ) );
#230 =( LENGTH_UNIT ( ) NAMED_UNIT ( * ) SI_UNIT ( .MILLI., .METRE. ) );
#231 = MECHANICAL_DESIGN_GEOMETRIC_PRESENTATION_REPRESENTATION (  '', ( #233 ), #3 ) ;
#232 = PRESENTATION_LAYER_ASSIGNMENT (  '', '', ( #233 ) ) ;
#233 = STYLED_ITEM ( 'NONE', ( #234 ), #190 ) ;
#234 = PRESENTATION_STYLE_ASSIGNMENT (( #235 ) ) ;
#235 = SURFACE_STYLE_USAGE ( .BOTH. , #236 ) ;
#236 = SURFACE_SIDE_STYLE ('',( #237 ) ) ;
#237 = SURFACE_STYLE_FILL_AREA ( #238 ) ;
#238 = FILL_AREA_STYLE ('',( #245 ) ) ;
#239 = COLOUR_RGB ( '',0.9568627450980391500, 0.9490196078431372100, 0.9607843137254902200 ) ;
#240 = FACE_OUTER_BOUND ( 'NONE', #191, .T. ) ;
#241 = DIRECTION ( 'NONE',  ( -0.0000000000000000000, -0.0000000000000000000, 1.000000000000000000 ) ) ;
#242 = VECTOR ( 'NONE', #241, 1000.000000000000000 ) ;
#243 = CARTESIAN_POINT ( 'NONE',  ( 25.39999999999999900, 0.0000000000000000000, 4.308132045400366600 ) ) ;
#244 = LINE ( 'NONE', #243, #242 ) ;
#245 = FILL_AREA_STYLE_COLOUR ( '', #239 ) ;
#246 = CARTESIAN_POINT ( 'NONE',  ( 25.39999999999999900, 0.0000000000000000000, 0.2300605988447826100 ) ) ;
#247 = DIRECTION ( 'NONE',  ( 1.000000000000000000, 0.0000000000000000000, 0.0000000000000000000 ) ) ;
#248 = DIRECTION ( 'NONE',  ( -0.0000000000000000000, -0.0000000000000000000, 1.000000000000000000 ) ) ;
#249 = CARTESIAN_POINT ( 'NONE',  ( 0.0000000000000000000, 0.0000000000000000000, 0.2300605988447826100 ) ) ;
#250 = AXIS2_PLACEMENT_3D ( 'NONE', #249, #248, #247 ) ;
#251 = CIRCLE ( 'NONE', #250, 25.39999999999999900 ) ;
#252 = CARTESIAN_POINT ( 'NONE',  ( 0.0000000000000000000, 25.40000000000002000, 0.2300605988447830300 ) ) ;
#253 = DIRECTION ( 'NONE',  ( 1.000000000000000000, 0.0000000000000000000, 0.0000000000000000000 ) ) ;
#254 = DIRECTION ( 'NONE',  ( -0.0000000000000000000, -0.0000000000000000000, 1.000000000000000000 ) ) ;
#255 = CARTESIAN_POINT ( 'NONE',  ( 0.0000000000000000000, 0.0000000000000000000, 0.2300605988447826100 ) ) ;
#256 = AXIS2_PLACEMENT_3D ( 'NONE', #255, #254, #253 ) ;
#257 = CIRCLE ( 'NONE', #256, 25.39999999999999900 ) ;
#258 = CARTESIAN_POINT ( 'NONE',  ( -25.39999999999999900, 3.110500138708838200E-015, 0.2300605988447826100 ) ) ;
#259 = DIRECTION ( 'NONE',  ( -0.0000000000000000000, -0.0000000000000000000, 1.000000000000000000 ) ) ;
#260 = VECTOR ( 'NONE', #259, 1000.000000000000000 ) ;
#261 = CARTESIAN_POINT ( 'NONE',  ( -25.39999999999999900, 3.110500138708838200E-015, 4.308132045400366600 ) ) ;
ENDSEC;
END-ISO-10303-21;
