ISO-10303-21;
HEADER;
FILE_DESCRIPTION (( 'STEP AP203' ),
    '1' );
FILE_NAME ('Web Model 48919_16010.step',
    '2020-10-21T18:32:54',
    ( '' ),
    ( '' ),
    'SwSTEP 2.0',
    'SolidWorks 2018',
    '' );
FILE_SCHEMA (( 'CONFIG_CONTROL_DESIGN' ));
ENDSEC;

DATA;
#1 = CARTESIAN_POINT ( 'NONE',  ( 0.0000000000000000000, 0.0000000000000000000, 0.0000000000000000000 ) ) ;
#2 = ORIENTED_EDGE ( 'NONE', *, *, #76, .F. ) ;
#3 = APPROVAL_STATUS ( 'not_yet_approved' ) ;
#4 = ADVANCED_FACE ( 'NONE', ( #40 ), #55, .T. ) ;
#5 = FACE_OUTER_BOUND ( 'NONE', #11, .T. ) ;
#6 = SECURITY_CLASSIFICATION ( '', '', #165 ) ;
#7 = EDGE_CURVE ( 'NONE', #139, #71, #141, .T. ) ;
#8 = DIRECTION ( 'NONE',  ( 1.000000000000000000, 0.0000000000000000000, 0.0000000000000000000 ) ) ;
#9 = AXIS2_PLACEMENT_3D ( 'NONE', #42, #32, #171 ) ;
#10 = APPROVAL_PERSON_ORGANIZATION ( #105, #45, #24 ) ;
#11 = EDGE_LOOP ( 'NONE', ( #34, #116 ) ) ;
#12 = ORIENTED_EDGE ( 'NONE', *, *, #31, .T. ) ;
#13 = AXIS2_PLACEMENT_3D ( 'NONE', #77, #48, #95 ) ;
#14 = AXIS2_PLACEMENT_3D ( 'NONE', #1, #78, #107 ) ;
#15 = PLANE ( 'NONE',  #162 ) ;
#16 = APPROVAL_ROLE ( '' ) ;
#17 = CC_DESIGN_PERSON_AND_ORGANIZATION_ASSIGNMENT ( #56, #109, ( #6 ) ) ;
#18 = DATE_AND_TIME ( #103, #172 ) ;
#19 = CALENDAR_DATE ( 2020, 21, 10 ) ;
#20 =( GEOMETRIC_REPRESENTATION_CONTEXT ( 3 ) GLOBAL_UNCERTAINTY_ASSIGNED_CONTEXT ( ( #156 ) ) GLOBAL_UNIT_ASSIGNED_CONTEXT ( ( #92, #133, #119 ) ) REPRESENTATION_CONTEXT ( 'NONE', 'WORKASPACE' ) );
#21 = CIRCLE ( 'NONE', #14, 15.00000000000000000 ) ;
#22 = COORDINATED_UNIVERSAL_TIME_OFFSET ( 5, 0, .BEHIND. ) ;
#23 = MECHANICAL_CONTEXT ( 'NONE', #159, 'mechanical' ) ;
#24 = APPROVAL_ROLE ( '' ) ;
#25 = APPROVAL_PERSON_ORGANIZATION ( #134, #59, #16 ) ;
#26 = DIRECTION ( 'NONE',  ( 1.000000000000000000, 0.0000000000000000000, -0.0000000000000000000 ) ) ;
#27 = AXIS2_PLACEMENT_3D ( 'NONE', #38, #63, #47 ) ;
#28 = DIRECTION ( 'NONE',  ( -0.0000000000000000000, -0.0000000000000000000, -1.000000000000000000 ) ) ;
#29 = APPROVAL_DATE_TIME ( #110, #45 ) ;
#30 = PERSON_AND_ORGANIZATION ( #44, #148 ) ;
#31 = EDGE_CURVE ( 'NONE', #71, #139, #168, .T. ) ;
#32 = DIRECTION ( 'NONE',  ( -0.0000000000000000000, -0.0000000000000000000, -1.000000000000000000 ) ) ;
#33 = AXIS2_PLACEMENT_3D ( 'NONE', #167, #84, #111 ) ;
#34 = ORIENTED_EDGE ( 'NONE', *, *, #113, .F. ) ;
#35 = APPROVAL_DATE_TIME ( #52, #59 ) ;
#36 = MANIFOLD_SOLID_BREP ( 'Boss-Extrude1', #129 ) ;
#37 = VERTEX_POINT ( 'NONE', #102 ) ;
#38 = CARTESIAN_POINT ( 'NONE',  ( 0.0000000000000000000, 0.0000000000000000000, 1.000000000000000000 ) ) ;
#39 = DATE_TIME_ROLE ( 'creation_date' ) ;
#40 = FACE_OUTER_BOUND ( 'NONE', #85, .T. ) ;
#41 = DIRECTION ( 'NONE',  ( 0.0000000000000000000, 0.0000000000000000000, 1.000000000000000000 ) ) ;
#42 = CARTESIAN_POINT ( 'NONE',  ( 0.0000000000000000000, 0.0000000000000000000, 1.000000000000000000 ) ) ;
#43 = DESIGN_CONTEXT ( 'detailed design', #161, 'design' ) ;
#44 = PERSON ( 'UNSPECIFIED', 'UNSPECIFIED', 'UNSPECIFIED', ('UNSPECIFIED'), ('UNSPECIFIED'), ('UNSPECIFIED') ) ;
#45 = APPROVAL ( #106, 'UNSPECIFIED' ) ;
#46 = ORIENTED_EDGE ( 'NONE', *, *, #7, .T. ) ;
#47 = DIRECTION ( 'NONE',  ( -1.000000000000000000, 0.0000000000000000000, 0.0000000000000000000 ) ) ;
#48 = DIRECTION ( 'NONE',  ( 0.0000000000000000000, 0.0000000000000000000, 1.000000000000000000 ) ) ;
#49 = CC_DESIGN_DATE_AND_TIME_ASSIGNMENT ( #125, #96, ( #6 ) ) ;
#50 = CARTESIAN_POINT ( 'NONE',  ( 0.0000000000000000000, 0.0000000000000000000, 0.0000000000000000000 ) ) ;
#51 = APPLICATION_PROTOCOL_DEFINITION ( 'international standard', 'config_control_design', 1994, #161 ) ;
#52 = DATE_AND_TIME ( #164, #144 ) ;
#53 = CARTESIAN_POINT ( 'NONE',  ( -15.00000000000000000, 0.0000000000000000000, 1.000000000000000000 ) ) ;
#54 = EDGE_LOOP ( 'NONE', ( #175, #80, #90, #153 ) ) ;
#55 = PLANE ( 'NONE',  #91 ) ;
#56 = PERSON_AND_ORGANIZATION ( #44, #148 ) ;
#57 = VECTOR ( 'NONE', #158, 1000.000000000000000 ) ;
#58 = PERSON_AND_ORGANIZATION ( #44, #148 ) ;
#59 = APPROVAL ( #108, 'UNSPECIFIED' ) ;
#60 = COORDINATED_UNIVERSAL_TIME_OFFSET ( 5, 0, .BEHIND. ) ;
#61 = ORIENTED_EDGE ( 'NONE', *, *, #115, .T. ) ;
#62 = CARTESIAN_POINT ( 'NONE',  ( 15.00000000000000000, 1.836970198721029589E-15, 0.0000000000000000000 ) ) ;
#63 = DIRECTION ( 'NONE',  ( -0.0000000000000000000, -0.0000000000000000000, -1.000000000000000000 ) ) ;
#64 = DIRECTION ( 'NONE',  ( 0.0000000000000000000, 0.0000000000000000000, 1.000000000000000000 ) ) ;
#65 = APPLICATION_PROTOCOL_DEFINITION ( 'international standard', 'config_control_design', 1994, #159 ) ;
#66 = CYLINDRICAL_SURFACE ( 'NONE', #9, 15.00000000000000000 ) ;
#67 = ADVANCED_BREP_SHAPE_REPRESENTATION ( 'Web Model 48919_16010', ( #36, #124 ), #20 ) ;
#68 = CARTESIAN_POINT ( 'NONE',  ( 0.0000000000000000000, 0.0000000000000000000, 1.000000000000000000 ) ) ;
#69 = PERSON_AND_ORGANIZATION_ROLE ( 'design_supplier' ) ;
#70 = CC_DESIGN_APPROVAL ( #59, ( #6 ) ) ;
#71 = VERTEX_POINT ( 'NONE', #140 ) ;
#72 = CC_DESIGN_PERSON_AND_ORGANIZATION_ASSIGNMENT ( #100, #121, ( #142 ) ) ;
#73 = DATE_AND_TIME ( #98, #174 ) ;
#74 = ORIENTED_EDGE ( 'NONE', *, *, #31, .F. ) ;
#75 = CALENDAR_DATE ( 2020, 21, 10 ) ;
#76 = EDGE_CURVE ( 'NONE', #139, #37, #79, .T. ) ;
#77 = CARTESIAN_POINT ( 'NONE',  ( 0.0000000000000000000, 0.0000000000000000000, 0.0000000000000000000 ) ) ;
#78 = DIRECTION ( 'NONE',  ( 0.0000000000000000000, 0.0000000000000000000, 1.000000000000000000 ) ) ;
#79 = LINE ( 'NONE', #53, #112 ) ;
#80 = ORIENTED_EDGE ( 'NONE', *, *, #7, .F. ) ;
#81 = APPROVAL_ROLE ( '' ) ;
#82 = ADVANCED_FACE ( 'NONE', ( #117 ), #66, .T. ) ;
#83 = PRODUCT ( 'Web Model 48919_16010', 'Web Model 48919_16010', '', ( #23 ) ) ;
#84 = DIRECTION ( 'NONE',  ( 0.0000000000000000000, 0.0000000000000000000, 1.000000000000000000 ) ) ;
#85 = EDGE_LOOP ( 'NONE', ( #46, #12 ) ) ;
#86 = PERSON_AND_ORGANIZATION ( #44, #148 ) ;
#87 = CARTESIAN_POINT ( 'NONE',  ( 0.0000000000000000000, 0.0000000000000000000, 1.000000000000000000 ) ) ;
#88 = CARTESIAN_POINT ( 'NONE',  ( 15.00000000000000000, 1.836970198721029589E-15, 1.000000000000000000 ) ) ;
#89 = CC_DESIGN_SECURITY_CLASSIFICATION ( #6, ( #151 ) ) ;
#90 = ORIENTED_EDGE ( 'NONE', *, *, #76, .T. ) ;
#91 = AXIS2_PLACEMENT_3D ( 'NONE', #68, #41, #137 ) ;
#92 =( LENGTH_UNIT ( ) NAMED_UNIT ( * ) SI_UNIT ( .MILLI., .METRE. ) );
#93 = COORDINATED_UNIVERSAL_TIME_OFFSET ( 5, 0, .BEHIND. ) ;
#94 = LINE ( 'NONE', #88, #57 ) ;
#95 = DIRECTION ( 'NONE',  ( 1.000000000000000000, 0.0000000000000000000, 0.0000000000000000000 ) ) ;
#96 = DATE_TIME_ROLE ( 'classification_date' ) ;
#97 = EDGE_CURVE ( 'NONE', #71, #149, #94, .T. ) ;
#98 = CALENDAR_DATE ( 2020, 21, 10 ) ;
#99 = CC_DESIGN_APPROVAL ( #157, ( #151 ) ) ;
#100 = PERSON_AND_ORGANIZATION ( #44, #148 ) ;
#101 = EDGE_LOOP ( 'NONE', ( #74, #104, #61, #2 ) ) ;
#102 = CARTESIAN_POINT ( 'NONE',  ( -15.00000000000000000, 0.0000000000000000000, 0.0000000000000000000 ) ) ;
#103 = CALENDAR_DATE ( 2020, 21, 10 ) ;
#104 = ORIENTED_EDGE ( 'NONE', *, *, #97, .T. ) ;
#105 = PERSON_AND_ORGANIZATION ( #44, #148 ) ;
#106 = APPROVAL_STATUS ( 'not_yet_approved' ) ;
#107 = DIRECTION ( 'NONE',  ( 1.000000000000000000, 0.0000000000000000000, 0.0000000000000000000 ) ) ;
#108 = APPROVAL_STATUS ( 'not_yet_approved' ) ;
#109 = PERSON_AND_ORGANIZATION_ROLE ( 'classification_officer' ) ;
#110 = DATE_AND_TIME ( #19, #128 ) ;
#111 = DIRECTION ( 'NONE',  ( 1.000000000000000000, 0.0000000000000000000, 0.0000000000000000000 ) ) ;
#112 = VECTOR ( 'NONE', #28, 1000.000000000000000 ) ;
#113 = EDGE_CURVE ( 'NONE', #37, #149, #21, .T. ) ;
#114 = APPROVAL_PERSON_ORGANIZATION ( #30, #157, #81 ) ;
#115 = EDGE_CURVE ( 'NONE', #149, #37, #155, .T. ) ;
#116 = ORIENTED_EDGE ( 'NONE', *, *, #115, .F. ) ;
#117 = FACE_OUTER_BOUND ( 'NONE', #101, .T. ) ;
#118 = DIRECTION ( 'NONE',  ( 0.0000000000000000000, 0.0000000000000000000, 1.000000000000000000 ) ) ;
#119 =( NAMED_UNIT ( * ) SI_UNIT ( $, .STERADIAN. ) SOLID_ANGLE_UNIT ( ) );
#120 = PERSON_AND_ORGANIZATION_ROLE ( 'design_owner' ) ;
#121 = PERSON_AND_ORGANIZATION_ROLE ( 'creator' ) ;
#122 = DIRECTION ( 'NONE',  ( 1.000000000000000000, 0.0000000000000000000, 0.0000000000000000000 ) ) ;
#123 = FACE_OUTER_BOUND ( 'NONE', #54, .T. ) ;
#124 = AXIS2_PLACEMENT_3D ( 'NONE', #50, #64, #122 ) ;
#125 = DATE_AND_TIME ( #75, #163 ) ;
#126 = ADVANCED_FACE ( 'NONE', ( #5 ), #15, .F. ) ;
#127 = COORDINATED_UNIVERSAL_TIME_OFFSET ( 5, 0, .BEHIND. ) ;
#128 = LOCAL_TIME ( 14, 32, 54.00000000000000000, #93 ) ;
#129 = CLOSED_SHELL ( 'NONE', ( #82, #135, #4, #126 ) ) ;
#130 = CC_DESIGN_PERSON_AND_ORGANIZATION_ASSIGNMENT ( #86, #120, ( #83 ) ) ;
#131 = APPROVAL_DATE_TIME ( #73, #157 ) ;
#132 = PRODUCT_DEFINITION_SHAPE ( 'NONE', 'NONE',  #142 ) ;
#133 =( NAMED_UNIT ( * ) PLANE_ANGLE_UNIT ( ) SI_UNIT ( $, .RADIAN. ) );
#134 = PERSON_AND_ORGANIZATION ( #44, #148 ) ;
#135 = ADVANCED_FACE ( 'NONE', ( #123 ), #145, .T. ) ;
#136 = CC_DESIGN_APPROVAL ( #45, ( #142 ) ) ;
#137 = DIRECTION ( 'NONE',  ( 1.000000000000000000, 0.0000000000000000000, -0.0000000000000000000 ) ) ;
#138 = COORDINATED_UNIVERSAL_TIME_OFFSET ( 5, 0, .BEHIND. ) ;
#139 = VERTEX_POINT ( 'NONE', #146 ) ;
#140 = CARTESIAN_POINT ( 'NONE',  ( 15.00000000000000000, 1.836970198721029589E-15, 1.000000000000000000 ) ) ;
#141 = CIRCLE ( 'NONE', #152, 15.00000000000000000 ) ;
#142 = PRODUCT_DEFINITION ( 'UNKNOWN', '', #151, #43 ) ;
#143 = SHAPE_DEFINITION_REPRESENTATION ( #132, #67 ) ;
#144 = LOCAL_TIME ( 14, 32, 54.00000000000000000, #127 ) ;
#145 = CYLINDRICAL_SURFACE ( 'NONE', #27, 15.00000000000000000 ) ;
#146 = CARTESIAN_POINT ( 'NONE',  ( -15.00000000000000000, 0.0000000000000000000, 1.000000000000000000 ) ) ;
#147 = CARTESIAN_POINT ( 'NONE',  ( 0.0000000000000000000, 0.0000000000000000000, 0.0000000000000000000 ) ) ;
#148 = ORGANIZATION ( 'UNSPECIFIED', 'UNSPECIFIED', '' ) ;
#149 = VERTEX_POINT ( 'NONE', #62 ) ;
#150 = PERSON_AND_ORGANIZATION_ROLE ( 'creator' ) ;
#151 = PRODUCT_DEFINITION_FORMATION_WITH_SPECIFIED_SOURCE ( 'ANY', '', #83, .NOT_KNOWN. ) ;
#152 = AXIS2_PLACEMENT_3D ( 'NONE', #87, #169, #8 ) ;
#153 = ORIENTED_EDGE ( 'NONE', *, *, #113, .T. ) ;
#154 = CC_DESIGN_DATE_AND_TIME_ASSIGNMENT ( #18, #39, ( #142 ) ) ;
#155 = CIRCLE ( 'NONE', #13, 15.00000000000000000 ) ;
#156 = UNCERTAINTY_MEASURE_WITH_UNIT (LENGTH_MEASURE( 1.000000000000000082E-05 ), #92, 'distance_accuracy_value', 'NONE');
#157 = APPROVAL ( #3, 'UNSPECIFIED' ) ;
#158 = DIRECTION ( 'NONE',  ( -0.0000000000000000000, -0.0000000000000000000, -1.000000000000000000 ) ) ;
#159 = APPLICATION_CONTEXT ( 'configuration controlled 3d designs of mechanical parts and assemblies' ) ;
#160 = PERSON_AND_ORGANIZATION ( #44, #148 ) ;
#161 = APPLICATION_CONTEXT ( 'configuration controlled 3d designs of mechanical parts and assemblies' ) ;
#162 = AXIS2_PLACEMENT_3D ( 'NONE', #147, #118, #26 ) ;
#163 = LOCAL_TIME ( 14, 32, 54.00000000000000000, #60 ) ;
#164 = CALENDAR_DATE ( 2020, 21, 10 ) ;
#165 = SECURITY_CLASSIFICATION_LEVEL ( 'unclassified' ) ;
#166 = CC_DESIGN_PERSON_AND_ORGANIZATION_ASSIGNMENT ( #160, #150, ( #151 ) ) ;
#167 = CARTESIAN_POINT ( 'NONE',  ( 0.0000000000000000000, 0.0000000000000000000, 1.000000000000000000 ) ) ;
#168 = CIRCLE ( 'NONE', #33, 15.00000000000000000 ) ;
#169 = DIRECTION ( 'NONE',  ( 0.0000000000000000000, 0.0000000000000000000, 1.000000000000000000 ) ) ;
#170 = CC_DESIGN_PERSON_AND_ORGANIZATION_ASSIGNMENT ( #58, #69, ( #151 ) ) ;
#171 = DIRECTION ( 'NONE',  ( -1.000000000000000000, 0.0000000000000000000, 0.0000000000000000000 ) ) ;
#172 = LOCAL_TIME ( 14, 32, 54.00000000000000000, #138 ) ;
#173 = PRODUCT_RELATED_PRODUCT_CATEGORY ( 'detail', '', ( #83 ) ) ;
#174 = LOCAL_TIME ( 14, 32, 54.00000000000000000, #22 ) ;
#175 = ORIENTED_EDGE ( 'NONE', *, *, #97, .F. ) ;
ENDSEC;
END-ISO-10303-21;
