ISO-10303-21;
HEADER;
FILE_DESCRIPTION (( 'STEP AP203' ),
    '1' );
FILE_NAME ('Web Model 49121.STEP',
    '2017-01-31T15:22:00',
    ( '' ),
    ( '' ),
    'SwSTEP 2.0',
    'SolidWorks 2016',
    '' );
FILE_SCHEMA (( 'CONFIG_CONTROL_DESIGN' ));
ENDSEC;

DATA;
#1 = VECTOR ( 'NONE', #140, 1000.000000000000000 ) ;
#2 = DATE_AND_TIME ( #38, #68 ) ;
#3 = AXIS2_PLACEMENT_3D ( 'NONE', #31, #17, #113 ) ;
#4 = ORIENTED_EDGE ( 'NONE', *, *, #122, .F. ) ;
#5 = COORDINATED_UNIVERSAL_TIME_OFFSET ( 5, 0, .BEHIND. ) ;
#6 = DIRECTION ( 'NONE',  ( 1.000000000000000000, 0.0000000000000000000, 0.0000000000000000000 ) ) ;
#7 = DIRECTION ( 'NONE',  ( 0.0000000000000000000, 0.0000000000000000000, 1.000000000000000000 ) ) ;
#8 = DIRECTION ( 'NONE',  ( 0.0000000000000000000, 0.0000000000000000000, 1.000000000000000000 ) ) ;
#9 = DIRECTION ( 'NONE',  ( 1.000000000000000000, 0.0000000000000000000, 0.0000000000000000000 ) ) ;
#10 = AXIS2_PLACEMENT_3D ( 'NONE', #114, #11, #137 ) ;
#11 = DIRECTION ( 'NONE',  ( 0.0000000000000000000, 0.0000000000000000000, 1.000000000000000000 ) ) ;
#12 = APPROVAL_ROLE ( '' ) ;
#13 = PERSON_AND_ORGANIZATION_ROLE ( 'design_supplier' ) ;
#14 = DATE_AND_TIME ( #48, #50 ) ;
#15 = PERSON_AND_ORGANIZATION ( #51, #18 ) ;
#16 = LOCAL_TIME ( 10, 22, 0.0000000000000000000, #5 ) ;
#17 = DIRECTION ( 'NONE',  ( 0.0000000000000000000, 0.0000000000000000000, 1.000000000000000000 ) ) ;
#18 = ORGANIZATION ( 'UNSPECIFIED', 'UNSPECIFIED', '' ) ;
#19 = CALENDAR_DATE ( 2017, 31, 1 ) ;
#20 = CARTESIAN_POINT ( 'NONE',  ( 4.500000000000000000, 0.0000000000000000000, 0.0000000000000000000 ) ) ;
#21 =( NAMED_UNIT ( * ) SI_UNIT ( $, .STERADIAN. ) SOLID_ANGLE_UNIT ( ) );
#22 = DIRECTION ( 'NONE',  ( 0.0000000000000000000, 0.0000000000000000000, 1.000000000000000000 ) ) ;
#23 = APPROVAL_PERSON_ORGANIZATION ( #85, #158, #12 ) ;
#24 = CC_DESIGN_DATE_AND_TIME_ASSIGNMENT ( #169, #91, ( #109 ) ) ;
#25 = PERSON_AND_ORGANIZATION ( #51, #18 ) ;
#26 = CALENDAR_DATE ( 2017, 31, 1 ) ;
#27 = ORIENTED_EDGE ( 'NONE', *, *, #98, .T. ) ;
#28 = VERTEX_POINT ( 'NONE', #20 ) ;
#29 = DIRECTION ( 'NONE',  ( 0.0000000000000000000, 0.0000000000000000000, 1.000000000000000000 ) ) ;
#30 = PERSON_AND_ORGANIZATION ( #51, #18 ) ;
#31 = CARTESIAN_POINT ( 'NONE',  ( 0.0000000000000000000, 0.0000000000000000000, -2.000000000000000000 ) ) ;
#32 = DIRECTION ( 'NONE',  ( 1.000000000000000000, 0.0000000000000000000, -0.0000000000000000000 ) ) ;
#33 = ORIENTED_EDGE ( 'NONE', *, *, #157, .F. ) ;
#34 = ADVANCED_FACE ( 'NONE', ( #57 ), #119, .T. ) ;
#35 = FACE_OUTER_BOUND ( 'NONE', #148, .T. ) ;
#36 = COORDINATED_UNIVERSAL_TIME_OFFSET ( 5, 0, .BEHIND. ) ;
#37 = ORIENTED_EDGE ( 'NONE', *, *, #73, .T. ) ;
#38 = CALENDAR_DATE ( 2017, 31, 1 ) ;
#39 =( GEOMETRIC_REPRESENTATION_CONTEXT ( 3 ) GLOBAL_UNCERTAINTY_ASSIGNED_CONTEXT ( ( #82 ) ) GLOBAL_UNIT_ASSIGNED_CONTEXT ( ( #44, #76, #21 ) ) REPRESENTATION_CONTEXT ( 'NONE', 'WORKASPACE' ) );
#40 = ADVANCED_FACE ( 'NONE', ( #61 ), #42, .F. ) ;
#41 = LOCAL_TIME ( 10, 22, 0.0000000000000000000, #36 ) ;
#42 = PLANE ( 'NONE',  #71 ) ;
#43 = AXIS2_PLACEMENT_3D ( 'NONE', #155, #22, #6 ) ;
#44 =( LENGTH_UNIT ( ) NAMED_UNIT ( * ) SI_UNIT ( .MILLI., .METRE. ) );
#45 = CARTESIAN_POINT ( 'NONE',  ( 4.500000000000000000, 0.0000000000000000000, -2.000000000000000000 ) ) ;
#46 = APPLICATION_CONTEXT ( 'configuration controlled 3d designs of mechanical parts and assemblies' ) ;
#47 = ORIENTED_EDGE ( 'NONE', *, *, #80, .F. ) ;
#48 = CALENDAR_DATE ( 2017, 31, 1 ) ;
#49 = DIRECTION ( 'NONE',  ( 1.000000000000000000, 0.0000000000000000000, 0.0000000000000000000 ) ) ;
#50 = LOCAL_TIME ( 10, 22, 0.0000000000000000000, #121 ) ;
#51 = PERSON ( 'UNSPECIFIED', 'UNSPECIFIED', 'UNSPECIFIED', ('UNSPECIFIED'), ('UNSPECIFIED'), ('UNSPECIFIED') ) ;
#52 = CIRCLE ( 'NONE', #43, 4.500000000000000000 ) ;
#53 = DATE_AND_TIME ( #19, #41 ) ;
#54 = ORIENTED_EDGE ( 'NONE', *, *, #136, .F. ) ;
#55 = APPROVAL_PERSON_ORGANIZATION ( #15, #133, #117 ) ;
#56 = DIRECTION ( 'NONE',  ( 0.0000000000000000000, 0.0000000000000000000, 1.000000000000000000 ) ) ;
#57 = FACE_OUTER_BOUND ( 'NONE', #97, .T. ) ;
#58 = CARTESIAN_POINT ( 'NONE',  ( 4.500000000000000000, 0.0000000000000000000, -2.000000000000000000 ) ) ;
#59 = AXIS2_PLACEMENT_3D ( 'NONE', #87, #29, #9 ) ;
#60 = APPROVAL_STATUS ( 'not_yet_approved' ) ;
#61 = FACE_OUTER_BOUND ( 'NONE', #93, .T. ) ;
#62 = APPROVAL_DATE_TIME ( #95, #88 ) ;
#63 = APPLICATION_CONTEXT ( 'configuration controlled 3d designs of mechanical parts and assemblies' ) ;
#64 = CC_DESIGN_DATE_AND_TIME_ASSIGNMENT ( #2, #130, ( #132 ) ) ;
#65 = APPROVAL_STATUS ( 'not_yet_approved' ) ;
#66 = CC_DESIGN_PERSON_AND_ORGANIZATION_ASSIGNMENT ( #161, #79, ( #134 ) ) ;
#67 = CC_DESIGN_PERSON_AND_ORGANIZATION_ASSIGNMENT ( #25, #144, ( #132 ) ) ;
#68 = LOCAL_TIME ( 10, 22, 0.0000000000000000000, #152 ) ;
#69 = AXIS2_PLACEMENT_3D ( 'NONE', #153, #8, #49 ) ;
#70 = CIRCLE ( 'NONE', #3, 4.500000000000000000 ) ;
#71 = AXIS2_PLACEMENT_3D ( 'NONE', #154, #56, #32 ) ;
#72 = DIRECTION ( 'NONE',  ( 1.000000000000000000, 0.0000000000000000000, -0.0000000000000000000 ) ) ;
#73 = EDGE_CURVE ( 'NONE', #115, #28, #108, .T. ) ;
#74 = PLANE ( 'NONE',  #174 ) ;
#75 = LINE ( 'NONE', #45, #128 ) ;
#76 =( NAMED_UNIT ( * ) PLANE_ANGLE_UNIT ( ) SI_UNIT ( $, .RADIAN. ) );
#77 = PRODUCT_RELATED_PRODUCT_CATEGORY ( 'detail', '', ( #131 ) ) ;
#78 = EDGE_LOOP ( 'NONE', ( #27, #37 ) ) ;
#79 = PERSON_AND_ORGANIZATION_ROLE ( 'creator' ) ;
#80 = EDGE_CURVE ( 'NONE', #165, #151, #107, .T. ) ;
#81 = CLOSED_SHELL ( 'NONE', ( #125, #34, #40, #166 ) ) ;
#82 = UNCERTAINTY_MEASURE_WITH_UNIT (LENGTH_MEASURE( 1.000000000000000100E-005 ), #44, 'distance_accuracy_value', 'NONE');
#83 = COORDINATED_UNIVERSAL_TIME_OFFSET ( 5, 0, .BEHIND. ) ;
#84 = CARTESIAN_POINT ( 'NONE',  ( 0.0000000000000000000, 0.0000000000000000000, -2.000000000000000000 ) ) ;
#85 = PERSON_AND_ORGANIZATION ( #51, #18 ) ;
#86 = CARTESIAN_POINT ( 'NONE',  ( -4.500000000000000000, 5.510910596163088600E-016, -2.000000000000000000 ) ) ;
#87 = CARTESIAN_POINT ( 'NONE',  ( 0.0000000000000000000, 0.0000000000000000000, 0.0000000000000000000 ) ) ;
#88 = APPROVAL ( #149, 'UNSPECIFIED' ) ;
#89 = PERSON_AND_ORGANIZATION_ROLE ( 'design_owner' ) ;
#90 = ORIENTED_EDGE ( 'NONE', *, *, #73, .F. ) ;
#91 = DATE_TIME_ROLE ( 'classification_date' ) ;
#92 = CC_DESIGN_APPROVAL ( #88, ( #134 ) ) ;
#93 = EDGE_LOOP ( 'NONE', ( #47, #4 ) ) ;
#94 = ORIENTED_EDGE ( 'NONE', *, *, #136, .T. ) ;
#95 = DATE_AND_TIME ( #173, #16 ) ;
#96 = CC_DESIGN_PERSON_AND_ORGANIZATION_ASSIGNMENT ( #129, #156, ( #109 ) ) ;
#97 = EDGE_LOOP ( 'NONE', ( #33, #171, #94, #90 ) ) ;
#98 = EDGE_CURVE ( 'NONE', #28, #115, #52, .T. ) ;
#99 = CARTESIAN_POINT ( 'NONE',  ( 0.0000000000000000000, 0.0000000000000000000, 0.0000000000000000000 ) ) ;
#100 = ORIENTED_EDGE ( 'NONE', *, *, #80, .T. ) ;
#101 = AXIS2_PLACEMENT_3D ( 'NONE', #139, #112, #168 ) ;
#102 = LOCAL_TIME ( 10, 22, 0.0000000000000000000, #83 ) ;
#103 = DIRECTION ( 'NONE',  ( 0.0000000000000000000, 0.0000000000000000000, 1.000000000000000000 ) ) ;
#104 = CC_DESIGN_APPROVAL ( #158, ( #132 ) ) ;
#105 = APPROVAL_ROLE ( '' ) ;
#106 = PRODUCT_DEFINITION_SHAPE ( 'NONE', 'NONE',  #132 ) ;
#107 = CIRCLE ( 'NONE', #145, 4.500000000000000000 ) ;
#108 = CIRCLE ( 'NONE', #59, 4.500000000000000000 ) ;
#109 = SECURITY_CLASSIFICATION ( '', '', #159 ) ;
#110 = LINE ( 'NONE', #86, #1 ) ;
#111 = CC_DESIGN_PERSON_AND_ORGANIZATION_ASSIGNMENT ( #120, #89, ( #131 ) ) ;
#112 = DIRECTION ( 'NONE',  ( 0.0000000000000000000, 0.0000000000000000000, 1.000000000000000000 ) ) ;
#113 = DIRECTION ( 'NONE',  ( 1.000000000000000000, 0.0000000000000000000, 0.0000000000000000000 ) ) ;
#114 = CARTESIAN_POINT ( 'NONE',  ( 0.0000000000000000000, 0.0000000000000000000, -2.000000000000000000 ) ) ;
#115 = VERTEX_POINT ( 'NONE', #126 ) ;
#116 = APPROVAL_DATE_TIME ( #14, #133 ) ;
#117 = APPROVAL_ROLE ( '' ) ;
#118 = ADVANCED_BREP_SHAPE_REPRESENTATION ( 'Web Model 49121', ( #150, #69 ), #39 ) ;
#119 = CYLINDRICAL_SURFACE ( 'NONE', #10, 4.500000000000000000 ) ;
#120 = PERSON_AND_ORGANIZATION ( #51, #18 ) ;
#121 = COORDINATED_UNIVERSAL_TIME_OFFSET ( 5, 0, .BEHIND. ) ;
#122 = EDGE_CURVE ( 'NONE', #151, #165, #70, .T. ) ;
#123 = ORIENTED_EDGE ( 'NONE', *, *, #98, .F. ) ;
#124 = APPROVAL_PERSON_ORGANIZATION ( #30, #88, #105 ) ;
#125 = ADVANCED_FACE ( 'NONE', ( #35 ), #163, .T. ) ;
#126 = CARTESIAN_POINT ( 'NONE',  ( -4.500000000000000000, 5.510910596163088600E-016, 0.0000000000000000000 ) ) ;
#127 = DIRECTION ( 'NONE',  ( 1.000000000000000000, 0.0000000000000000000, 0.0000000000000000000 ) ) ;
#128 = VECTOR ( 'NONE', #103, 1000.000000000000000 ) ;
#129 = PERSON_AND_ORGANIZATION ( #51, #18 ) ;
#130 = DATE_TIME_ROLE ( 'creation_date' ) ;
#131 = PRODUCT ( 'Web Model 49121', 'Web Model 49121', '', ( #147 ) ) ;
#132 = PRODUCT_DEFINITION ( 'UNKNOWN', '', #134, #141 ) ;
#133 = APPROVAL ( #65, 'UNSPECIFIED' ) ;
#134 = PRODUCT_DEFINITION_FORMATION_WITH_SPECIFIED_SOURCE ( 'ANY', '', #131, .NOT_KNOWN. ) ;
#135 = PERSON_AND_ORGANIZATION ( #51, #18 ) ;
#136 = EDGE_CURVE ( 'NONE', #165, #28, #75, .T. ) ;
#137 = DIRECTION ( 'NONE',  ( 1.000000000000000000, 0.0000000000000000000, 0.0000000000000000000 ) ) ;
#138 = CC_DESIGN_APPROVAL ( #133, ( #109 ) ) ;
#139 = CARTESIAN_POINT ( 'NONE',  ( 0.0000000000000000000, 0.0000000000000000000, -2.000000000000000000 ) ) ;
#140 = DIRECTION ( 'NONE',  ( 0.0000000000000000000, 0.0000000000000000000, 1.000000000000000000 ) ) ;
#141 = DESIGN_CONTEXT ( 'detailed design', #46, 'design' ) ;
#142 = CARTESIAN_POINT ( 'NONE',  ( -4.500000000000000000, 5.510910596163088600E-016, -2.000000000000000000 ) ) ;
#143 = ORIENTED_EDGE ( 'NONE', *, *, #157, .T. ) ;
#144 = PERSON_AND_ORGANIZATION_ROLE ( 'creator' ) ;
#145 = AXIS2_PLACEMENT_3D ( 'NONE', #84, #167, #127 ) ;
#146 = APPLICATION_PROTOCOL_DEFINITION ( 'international standard', 'config_control_design', 1994, #46 ) ;
#147 = MECHANICAL_CONTEXT ( 'NONE', #63, 'mechanical' ) ;
#148 = EDGE_LOOP ( 'NONE', ( #100, #143, #123, #54 ) ) ;
#149 = APPROVAL_STATUS ( 'not_yet_approved' ) ;
#150 = MANIFOLD_SOLID_BREP ( 'Extrude1', #81 ) ;
#151 = VERTEX_POINT ( 'NONE', #142 ) ;
#152 = COORDINATED_UNIVERSAL_TIME_OFFSET ( 5, 0, .BEHIND. ) ;
#153 = CARTESIAN_POINT ( 'NONE',  ( 0.0000000000000000000, 0.0000000000000000000, 0.0000000000000000000 ) ) ;
#154 = CARTESIAN_POINT ( 'NONE',  ( 0.0000000000000000000, 0.0000000000000000000, -2.000000000000000000 ) ) ;
#155 = CARTESIAN_POINT ( 'NONE',  ( 0.0000000000000000000, 0.0000000000000000000, 0.0000000000000000000 ) ) ;
#156 = PERSON_AND_ORGANIZATION_ROLE ( 'classification_officer' ) ;
#157 = EDGE_CURVE ( 'NONE', #151, #115, #110, .T. ) ;
#158 = APPROVAL ( #60, 'UNSPECIFIED' ) ;
#159 = SECURITY_CLASSIFICATION_LEVEL ( 'unclassified' ) ;
#160 = SHAPE_DEFINITION_REPRESENTATION ( #106, #118 ) ;
#161 = PERSON_AND_ORGANIZATION ( #51, #18 ) ;
#162 = CC_DESIGN_PERSON_AND_ORGANIZATION_ASSIGNMENT ( #135, #13, ( #134 ) ) ;
#163 = CYLINDRICAL_SURFACE ( 'NONE', #101, 4.500000000000000000 ) ;
#164 = APPROVAL_DATE_TIME ( #53, #158 ) ;
#165 = VERTEX_POINT ( 'NONE', #58 ) ;
#166 = ADVANCED_FACE ( 'NONE', ( #175 ), #74, .T. ) ;
#167 = DIRECTION ( 'NONE',  ( 0.0000000000000000000, 0.0000000000000000000, 1.000000000000000000 ) ) ;
#168 = DIRECTION ( 'NONE',  ( 1.000000000000000000, 0.0000000000000000000, 0.0000000000000000000 ) ) ;
#169 = DATE_AND_TIME ( #26, #102 ) ;
#170 = CC_DESIGN_SECURITY_CLASSIFICATION ( #109, ( #134 ) ) ;
#171 = ORIENTED_EDGE ( 'NONE', *, *, #122, .T. ) ;
#172 = APPLICATION_PROTOCOL_DEFINITION ( 'international standard', 'config_control_design', 1994, #63 ) ;
#173 = CALENDAR_DATE ( 2017, 31, 1 ) ;
#174 = AXIS2_PLACEMENT_3D ( 'NONE', #99, #7, #72 ) ;
#175 = FACE_OUTER_BOUND ( 'NONE', #78, .T. ) ;
ENDSEC;
END-ISO-10303-21;
