ISO-10303-21;
HEADER;
FILE_DESCRIPTION (( 'STEP AP203' ),
    '1' );
FILE_NAME ('Web Model 32740_32741.step',
    '2017-06-05T13:07:33',
    ( '' ),
    ( '' ),
    'SwSTEP 2.0',
    'SolidWorks 2016',
    '' );
FILE_SCHEMA (( 'CONFIG_CONTROL_DESIGN' ));
ENDSEC;

DATA;
#1 = ORIENTED_EDGE ( 'NONE', *, *, #97, .T. ) ;
#2 = AXIS2_PLACEMENT_3D ( 'NONE', #233, #22, #64 ) ;
#3 = ORIENTED_EDGE ( 'NONE', *, *, #56, .T. ) ;
#4 = COORDINATED_UNIVERSAL_TIME_OFFSET ( 5, 0, .BEHIND. ) ;
#5 = FACE_OUTER_BOUND ( 'NONE', #189, .T. ) ;
#6 = LOCAL_TIME ( 9, 7, 33.00000000000000000, #100 ) ;
#7 = ORIENTED_EDGE ( 'NONE', *, *, #229, .F. ) ;
#8 = CARTESIAN_POINT ( 'NONE',  ( -24.00000000000000400, 41.99999999999999300, 1.500000000000000000 ) ) ;
#9 = EDGE_LOOP ( 'NONE', ( #21, #163, #7, #182 ) ) ;
#10 = CARTESIAN_POINT ( 'NONE',  ( -24.00000000000000400, -42.00000000000000700, 1.500000000000000000 ) ) ;
#11 = PERSON_AND_ORGANIZATION ( #209, #162 ) ;
#12 = VECTOR ( 'NONE', #67, 1000.000000000000000 ) ;
#13 = VECTOR ( 'NONE', #106, 1000.000000000000000 ) ;
#14 = PERSON_AND_ORGANIZATION_ROLE ( 'design_supplier' ) ;
#15 = SECURITY_CLASSIFICATION_LEVEL ( 'unclassified' ) ;
#16 = VERTEX_POINT ( 'NONE', #8 ) ;
#17 = LOCAL_TIME ( 9, 7, 33.00000000000000000, #103 ) ;
#18 = ORIENTED_EDGE ( 'NONE', *, *, #48, .T. ) ;
#19 = VECTOR ( 'NONE', #197, 1000.000000000000000 ) ;
#20 = CC_DESIGN_APPROVAL ( #52, ( #24 ) ) ;
#21 = ORIENTED_EDGE ( 'NONE', *, *, #87, .T. ) ;
#22 = DIRECTION ( 'NONE',  ( 1.000000000000000000, 0.0000000000000000000, 0.0000000000000000000 ) ) ;
#23 = CARTESIAN_POINT ( 'NONE',  ( -24.00000000000000400, -42.00000000000000700, 1.500000000000000000 ) ) ;
#24 = SECURITY_CLASSIFICATION ( '', '', #15 ) ;
#25 = CALENDAR_DATE ( 2017, 5, 6 ) ;
#26 = CARTESIAN_POINT ( 'NONE',  ( 23.99999999999999600, -42.00000000000000700, 1.500000000000000000 ) ) ;
#27 = VERTEX_POINT ( 'NONE', #169 ) ;
#28 = CC_DESIGN_SECURITY_CLASSIFICATION ( #24, ( #216 ) ) ;
#29 = DIRECTION ( 'NONE',  ( -0.0000000000000000000, -0.0000000000000000000, -1.000000000000000000 ) ) ;
#30 = APPROVAL_DATE_TIME ( #139, #149 ) ;
#31 =( NAMED_UNIT ( * ) SI_UNIT ( $, .STERADIAN. ) SOLID_ANGLE_UNIT ( ) );
#32 = ORIENTED_EDGE ( 'NONE', *, *, #48, .F. ) ;
#33 = SHAPE_DEFINITION_REPRESENTATION ( #143, #37 ) ;
#34 = EDGE_CURVE ( 'NONE', #74, #36, #210, .T. ) ;
#35 = VECTOR ( 'NONE', #232, 1000.000000000000000 ) ;
#36 = VERTEX_POINT ( 'NONE', #83 ) ;
#37 = ADVANCED_BREP_SHAPE_REPRESENTATION ( 'Web Model 32740_32741', ( #71, #207 ), #214 ) ;
#38 = EDGE_CURVE ( 'NONE', #74, #16, #108, .T. ) ;
#39 = VECTOR ( 'NONE', #134, 1000.000000000000000 ) ;
#40 = DIRECTION ( 'NONE',  ( -1.000000000000000000, -0.0000000000000000000, -0.0000000000000000000 ) ) ;
#41 = PLANE ( 'NONE',  #90 ) ;
#42 = DIRECTION ( 'NONE',  ( 1.000000000000000000, 0.0000000000000000000, 0.0000000000000000000 ) ) ;
#43 = FACE_OUTER_BOUND ( 'NONE', #150, .T. ) ;
#44 = AXIS2_PLACEMENT_3D ( 'NONE', #175, #88, #138 ) ;
#45 = DIRECTION ( 'NONE',  ( -0.0000000000000000000, -1.000000000000000000, -0.0000000000000000000 ) ) ;
#46 = ORIENTED_EDGE ( 'NONE', *, *, #101, .T. ) ;
#47 = COORDINATED_UNIVERSAL_TIME_OFFSET ( 5, 0, .BEHIND. ) ;
#48 = EDGE_CURVE ( 'NONE', #16, #72, #160, .T. ) ;
#49 = CARTESIAN_POINT ( 'NONE',  ( -24.00000000000000400, 41.99999999999999300, 1.500000000000000000 ) ) ;
#50 = DIRECTION ( 'NONE',  ( 0.0000000000000000000, 0.0000000000000000000, 1.000000000000000000 ) ) ;
#51 = PERSON_AND_ORGANIZATION ( #209, #162 ) ;
#52 = APPROVAL ( #221, 'UNSPECIFIED' ) ;
#53 = VECTOR ( 'NONE', #45, 1000.000000000000000 ) ;
#54 = APPLICATION_PROTOCOL_DEFINITION ( 'international standard', 'config_control_design', 1994, #183 ) ;
#55 =( NAMED_UNIT ( * ) PLANE_ANGLE_UNIT ( ) SI_UNIT ( $, .RADIAN. ) );
#56 = EDGE_CURVE ( 'NONE', #36, #117, #115, .T. ) ;
#57 = PERSON_AND_ORGANIZATION ( #209, #162 ) ;
#58 = ORIENTED_EDGE ( 'NONE', *, *, #110, .T. ) ;
#59 = DATE_AND_TIME ( #193, #6 ) ;
#60 = EDGE_CURVE ( 'NONE', #72, #203, #132, .T. ) ;
#61 = PLANE ( 'NONE',  #2 ) ;
#62 = EDGE_LOOP ( 'NONE', ( #58, #147, #137, #1 ) ) ;
#63 = EDGE_CURVE ( 'NONE', #117, #203, #184, .T. ) ;
#64 = DIRECTION ( 'NONE',  ( 0.0000000000000000000, 0.0000000000000000000, -1.000000000000000000 ) ) ;
#65 = CARTESIAN_POINT ( 'NONE',  ( 23.99999999999999600, 41.99999999999999300, 1.500000000000000000 ) ) ;
#66 = ORIENTED_EDGE ( 'NONE', *, *, #60, .F. ) ;
#67 = DIRECTION ( 'NONE',  ( -0.0000000000000000000, -0.0000000000000000000, -1.000000000000000000 ) ) ;
#68 = DIRECTION ( 'NONE',  ( -1.000000000000000000, 0.0000000000000000000, -0.0000000000000000000 ) ) ;
#69 = DIRECTION ( 'NONE',  ( -1.000000000000000000, 0.0000000000000000000, 0.0000000000000000000 ) ) ;
#70 = LOCAL_TIME ( 9, 7, 33.00000000000000000, #4 ) ;
#71 = MANIFOLD_SOLID_BREP ( 'Boss-Extrude1', #206 ) ;
#72 = VERTEX_POINT ( 'NONE', #186 ) ;
#73 = DIRECTION ( 'NONE',  ( 1.000000000000000000, 0.0000000000000000000, 0.0000000000000000000 ) ) ;
#74 = VERTEX_POINT ( 'NONE', #82 ) ;
#75 = APPROVAL_ROLE ( '' ) ;
#76 = ADVANCED_FACE ( 'NONE', ( #5 ), #61, .F. ) ;
#77 = CC_DESIGN_PERSON_AND_ORGANIZATION_ASSIGNMENT ( #130, #177, ( #136 ) ) ;
#78 = CC_DESIGN_APPROVAL ( #128, ( #216 ) ) ;
#79 = LOCAL_TIME ( 9, 7, 33.00000000000000000, #120 ) ;
#80 = ORIENTED_EDGE ( 'NONE', *, *, #63, .T. ) ;
#81 = APPROVAL_DATE_TIME ( #225, #52 ) ;
#82 = CARTESIAN_POINT ( 'NONE',  ( 23.99999999999999600, 41.99999999999999300, 1.500000000000000000 ) ) ;
#83 = CARTESIAN_POINT ( 'NONE',  ( 23.99999999999999600, 41.99999999999999300, -1.500000000000000000 ) ) ;
#84 = DIRECTION ( 'NONE',  ( 0.0000000000000000000, -0.0000000000000000000, 1.000000000000000000 ) ) ;
#85 = CARTESIAN_POINT ( 'NONE',  ( -24.00000000000000400, -42.00000000000000700, 1.500000000000000000 ) ) ;
#86 = LOCAL_TIME ( 9, 7, 33.00000000000000000, #47 ) ;
#87 = EDGE_CURVE ( 'NONE', #203, #27, #235, .T. ) ;
#88 = DIRECTION ( 'NONE',  ( 0.0000000000000000000, -1.000000000000000000, 0.0000000000000000000 ) ) ;
#89 = LINE ( 'NONE', #151, #176 ) ;
#90 = AXIS2_PLACEMENT_3D ( 'NONE', #23, #152, #84 ) ;
#91 = LINE ( 'NONE', #230, #35 ) ;
#92 = CC_DESIGN_PERSON_AND_ORGANIZATION_ASSIGNMENT ( #57, #93, ( #216 ) ) ;
#93 = PERSON_AND_ORGANIZATION_ROLE ( 'creator' ) ;
#94 = DATE_TIME_ROLE ( 'creation_date' ) ;
#95 = PERSON_AND_ORGANIZATION_ROLE ( 'classification_officer' ) ;
#96 = FACE_OUTER_BOUND ( 'NONE', #9, .T. ) ;
#97 = EDGE_CURVE ( 'NONE', #157, #27, #89, .T. ) ;
#98 = PERSON_AND_ORGANIZATION ( #209, #162 ) ;
#99 = ADVANCED_FACE ( 'NONE', ( #96 ), #41, .F. ) ;
#100 = COORDINATED_UNIVERSAL_TIME_OFFSET ( 5, 0, .BEHIND. ) ;
#101 = EDGE_CURVE ( 'NONE', #157, #74, #135, .T. ) ;
#102 = ORIENTED_EDGE ( 'NONE', *, *, #87, .F. ) ;
#103 = COORDINATED_UNIVERSAL_TIME_OFFSET ( 5, 0, .BEHIND. ) ;
#104 = VECTOR ( 'NONE', #42, 1000.000000000000000 ) ;
#105 = CARTESIAN_POINT ( 'NONE',  ( -24.00000000000000400, -42.00000000000000700, -1.500000000000000000 ) ) ;
#106 = DIRECTION ( 'NONE',  ( -0.0000000000000000000, -0.0000000000000000000, -1.000000000000000000 ) ) ;
#107 = PERSON_AND_ORGANIZATION ( #209, #162 ) ;
#108 = LINE ( 'NONE', #170, #196 ) ;
#109 = PLANE ( 'NONE',  #44 ) ;
#110 = EDGE_CURVE ( 'NONE', #27, #36, #91, .T. ) ;
#111 =( LENGTH_UNIT ( ) NAMED_UNIT ( * ) SI_UNIT ( .MILLI., .METRE. ) );
#112 = ORIENTED_EDGE ( 'NONE', *, *, #229, .T. ) ;
#113 = CARTESIAN_POINT ( 'NONE',  ( -24.00000000000000400, -42.00000000000000700, -1.500000000000000000 ) ) ;
#114 = FACE_OUTER_BOUND ( 'NONE', #154, .T. ) ;
#115 = LINE ( 'NONE', #212, #213 ) ;
#116 = CC_DESIGN_PERSON_AND_ORGANIZATION_ASSIGNMENT ( #51, #95, ( #24 ) ) ;
#117 = VERTEX_POINT ( 'NONE', #190 ) ;
#118 = ADVANCED_FACE ( 'NONE', ( #119 ), #155, .T. ) ;
#119 = FACE_OUTER_BOUND ( 'NONE', #122, .T. ) ;
#120 = COORDINATED_UNIVERSAL_TIME_OFFSET ( 5, 0, .BEHIND. ) ;
#121 = AXIS2_PLACEMENT_3D ( 'NONE', #127, #142, #68 ) ;
#122 = EDGE_LOOP ( 'NONE', ( #167, #102, #200, #223 ) ) ;
#123 = CARTESIAN_POINT ( 'NONE',  ( 23.99999999999999600, -42.00000000000000700, 1.500000000000000000 ) ) ;
#124 = CARTESIAN_POINT ( 'NONE',  ( -24.00000000000000400, -42.00000000000000700, -1.500000000000000000 ) ) ;
#125 = PLANE ( 'NONE',  #181 ) ;
#126 = ORIENTED_EDGE ( 'NONE', *, *, #38, .T. ) ;
#127 = CARTESIAN_POINT ( 'NONE',  ( 0.0000000000000000000, 0.0000000000000000000, -1.500000000000000000 ) ) ;
#128 = APPROVAL ( #219, 'UNSPECIFIED' ) ;
#129 = VECTOR ( 'NONE', #29, 1000.000000000000000 ) ;
#130 = PERSON_AND_ORGANIZATION ( #209, #162 ) ;
#131 = CALENDAR_DATE ( 2017, 5, 6 ) ;
#132 = LINE ( 'NONE', #10, #13 ) ;
#133 = UNCERTAINTY_MEASURE_WITH_UNIT (LENGTH_MEASURE( 1.000000000000000100E-005 ), #111, 'distance_accuracy_value', 'NONE');
#134 = DIRECTION ( 'NONE',  ( 0.0000000000000000000, 1.000000000000000000, 0.0000000000000000000 ) ) ;
#135 = LINE ( 'NONE', #123, #39 ) ;
#136 = PRODUCT_DEFINITION ( 'UNKNOWN', '', #216, #218 ) ;
#137 = ORIENTED_EDGE ( 'NONE', *, *, #101, .F. ) ;
#138 = DIRECTION ( 'NONE',  ( 0.0000000000000000000, -0.0000000000000000000, -1.000000000000000000 ) ) ;
#139 = DATE_AND_TIME ( #205, #86 ) ;
#140 = CARTESIAN_POINT ( 'NONE',  ( 0.0000000000000000000, 0.0000000000000000000, 1.500000000000000000 ) ) ;
#141 = ORIENTED_EDGE ( 'NONE', *, *, #38, .F. ) ;
#142 = DIRECTION ( 'NONE',  ( 0.0000000000000000000, 0.0000000000000000000, -1.000000000000000000 ) ) ;
#143 = PRODUCT_DEFINITION_SHAPE ( 'NONE', 'NONE',  #136 ) ;
#144 = ORIENTED_EDGE ( 'NONE', *, *, #172, .F. ) ;
#145 = VECTOR ( 'NONE', #171, 1000.000000000000000 ) ;
#146 = CC_DESIGN_PERSON_AND_ORGANIZATION_ASSIGNMENT ( #153, #14, ( #216 ) ) ;
#147 = ORIENTED_EDGE ( 'NONE', *, *, #34, .F. ) ;
#148 = APPROVAL_PERSON_ORGANIZATION ( #98, #52, #236 ) ;
#149 = APPROVAL ( #199, 'UNSPECIFIED' ) ;
#150 = EDGE_LOOP ( 'NONE', ( #3, #144, #141, #228 ) ) ;
#151 = CARTESIAN_POINT ( 'NONE',  ( 23.99999999999999600, -42.00000000000000700, 1.500000000000000000 ) ) ;
#152 = DIRECTION ( 'NONE',  ( 0.0000000000000000000, 1.000000000000000000, 0.0000000000000000000 ) ) ;
#153 = PERSON_AND_ORGANIZATION ( #209, #162 ) ;
#154 = EDGE_LOOP ( 'NONE', ( #46, #126, #18, #112 ) ) ;
#155 = PLANE ( 'NONE',  #121 ) ;
#156 = LINE ( 'NONE', #195, #19 ) ;
#157 = VERTEX_POINT ( 'NONE', #158 ) ;
#158 = CARTESIAN_POINT ( 'NONE',  ( 23.99999999999999600, -42.00000000000000700, 1.500000000000000000 ) ) ;
#159 = CARTESIAN_POINT ( 'NONE',  ( 0.0000000000000000000, 0.0000000000000000000, 0.0000000000000000000 ) ) ;
#160 = LINE ( 'NONE', #85, #145 ) ;
#161 = APPLICATION_CONTEXT ( 'configuration controlled 3d designs of mechanical parts and assemblies' ) ;
#162 = ORGANIZATION ( 'UNSPECIFIED', 'UNSPECIFIED', '' ) ;
#163 = ORIENTED_EDGE ( 'NONE', *, *, #97, .F. ) ;
#164 = CC_DESIGN_APPROVAL ( #149, ( #136 ) ) ;
#165 = PRODUCT ( 'Web Model 32740_32741', 'Web Model 32740_32741', '', ( #237 ) ) ;
#166 = CALENDAR_DATE ( 2017, 5, 6 ) ;
#167 = ORIENTED_EDGE ( 'NONE', *, *, #110, .F. ) ;
#168 = PRODUCT_RELATED_PRODUCT_CATEGORY ( 'detail', '', ( #165 ) ) ;
#169 = CARTESIAN_POINT ( 'NONE',  ( 23.99999999999999600, -42.00000000000000700, -1.500000000000000000 ) ) ;
#170 = CARTESIAN_POINT ( 'NONE',  ( -24.00000000000000400, 41.99999999999999300, 1.500000000000000000 ) ) ;
#171 = DIRECTION ( 'NONE',  ( -0.0000000000000000000, -1.000000000000000000, -0.0000000000000000000 ) ) ;
#172 = EDGE_CURVE ( 'NONE', #16, #117, #194, .T. ) ;
#173 = DIRECTION ( 'NONE',  ( -1.000000000000000000, 0.0000000000000000000, -0.0000000000000000000 ) ) ;
#174 = PLANE ( 'NONE',  #227 ) ;
#175 = CARTESIAN_POINT ( 'NONE',  ( -24.00000000000000400, 41.99999999999999300, 1.500000000000000000 ) ) ;
#176 = VECTOR ( 'NONE', #211, 1000.000000000000000 ) ;
#177 = PERSON_AND_ORGANIZATION_ROLE ( 'creator' ) ;
#178 = DATE_TIME_ROLE ( 'classification_date' ) ;
#179 = APPROVAL_PERSON_ORGANIZATION ( #11, #149, #198 ) ;
#180 = APPLICATION_PROTOCOL_DEFINITION ( 'international standard', 'config_control_design', 1994, #161 ) ;
#181 = AXIS2_PLACEMENT_3D ( 'NONE', #26, #69, #217 ) ;
#182 = ORIENTED_EDGE ( 'NONE', *, *, #60, .T. ) ;
#183 = APPLICATION_CONTEXT ( 'configuration controlled 3d designs of mechanical parts and assemblies' ) ;
#184 = LINE ( 'NONE', #124, #53 ) ;
#185 = DATE_AND_TIME ( #25, #79 ) ;
#186 = CARTESIAN_POINT ( 'NONE',  ( -24.00000000000000400, -42.00000000000000700, 1.500000000000000000 ) ) ;
#187 = ORIENTED_EDGE ( 'NONE', *, *, #172, .T. ) ;
#188 = DIRECTION ( 'NONE',  ( -1.000000000000000000, -0.0000000000000000000, -0.0000000000000000000 ) ) ;
#189 = EDGE_LOOP ( 'NONE', ( #80, #66, #32, #187 ) ) ;
#190 = CARTESIAN_POINT ( 'NONE',  ( -24.00000000000000400, 41.99999999999999300, -1.500000000000000000 ) ) ;
#191 = CC_DESIGN_PERSON_AND_ORGANIZATION_ASSIGNMENT ( #234, #222, ( #165 ) ) ;
#192 = CC_DESIGN_DATE_AND_TIME_ASSIGNMENT ( #220, #178, ( #24 ) ) ;
#193 = CALENDAR_DATE ( 2017, 5, 6 ) ;
#194 = LINE ( 'NONE', #49, #129 ) ;
#195 = CARTESIAN_POINT ( 'NONE',  ( -24.00000000000000400, -42.00000000000000700, 1.500000000000000000 ) ) ;
#196 = VECTOR ( 'NONE', #188, 1000.000000000000000 ) ;
#197 = DIRECTION ( 'NONE',  ( 1.000000000000000000, 0.0000000000000000000, 0.0000000000000000000 ) ) ;
#198 = APPROVAL_ROLE ( '' ) ;
#199 = APPROVAL_STATUS ( 'not_yet_approved' ) ;
#200 = ORIENTED_EDGE ( 'NONE', *, *, #63, .F. ) ;
#201 = APPROVAL_DATE_TIME ( #185, #128 ) ;
#202 = CC_DESIGN_DATE_AND_TIME_ASSIGNMENT ( #59, #94, ( #136 ) ) ;
#203 = VERTEX_POINT ( 'NONE', #113 ) ;
#204 = ADVANCED_FACE ( 'NONE', ( #43 ), #109, .F. ) ;
#205 = CALENDAR_DATE ( 2017, 5, 6 ) ;
#206 = CLOSED_SHELL ( 'NONE', ( #226, #204, #76, #99, #224, #118 ) ) ;
#207 = AXIS2_PLACEMENT_3D ( 'NONE', #159, #50, #73 ) ;
#208 = FACE_OUTER_BOUND ( 'NONE', #62, .T. ) ;
#209 = PERSON ( 'UNSPECIFIED', 'UNSPECIFIED', 'UNSPECIFIED', ('UNSPECIFIED'), ('UNSPECIFIED'), ('UNSPECIFIED') ) ;
#210 = LINE ( 'NONE', #65, #12 ) ;
#211 = DIRECTION ( 'NONE',  ( -0.0000000000000000000, -0.0000000000000000000, -1.000000000000000000 ) ) ;
#212 = CARTESIAN_POINT ( 'NONE',  ( -24.00000000000000400, 41.99999999999999300, -1.500000000000000000 ) ) ;
#213 = VECTOR ( 'NONE', #40, 1000.000000000000000 ) ;
#214 =( GEOMETRIC_REPRESENTATION_CONTEXT ( 3 ) GLOBAL_UNCERTAINTY_ASSIGNED_CONTEXT ( ( #133 ) ) GLOBAL_UNIT_ASSIGNED_CONTEXT ( ( #111, #55, #31 ) ) REPRESENTATION_CONTEXT ( 'NONE', 'WORKASPACE' ) );
#215 = DIRECTION ( 'NONE',  ( 0.0000000000000000000, 0.0000000000000000000, -1.000000000000000000 ) ) ;
#216 = PRODUCT_DEFINITION_FORMATION_WITH_SPECIFIED_SOURCE ( 'ANY', '', #165, .NOT_KNOWN. ) ;
#217 = DIRECTION ( 'NONE',  ( 0.0000000000000000000, 0.0000000000000000000, 1.000000000000000000 ) ) ;
#218 = DESIGN_CONTEXT ( 'detailed design', #183, 'design' ) ;
#219 = APPROVAL_STATUS ( 'not_yet_approved' ) ;
#220 = DATE_AND_TIME ( #166, #70 ) ;
#221 = APPROVAL_STATUS ( 'not_yet_approved' ) ;
#222 = PERSON_AND_ORGANIZATION_ROLE ( 'design_owner' ) ;
#223 = ORIENTED_EDGE ( 'NONE', *, *, #56, .F. ) ;
#224 = ADVANCED_FACE ( 'NONE', ( #114 ), #174, .F. ) ;
#225 = DATE_AND_TIME ( #131, #17 ) ;
#226 = ADVANCED_FACE ( 'NONE', ( #208 ), #125, .F. ) ;
#227 = AXIS2_PLACEMENT_3D ( 'NONE', #140, #215, #173 ) ;
#228 = ORIENTED_EDGE ( 'NONE', *, *, #34, .T. ) ;
#229 = EDGE_CURVE ( 'NONE', #72, #157, #156, .T. ) ;
#230 = CARTESIAN_POINT ( 'NONE',  ( 23.99999999999999600, -42.00000000000000700, -1.500000000000000000 ) ) ;
#231 = APPROVAL_PERSON_ORGANIZATION ( #107, #128, #75 ) ;
#232 = DIRECTION ( 'NONE',  ( 0.0000000000000000000, 1.000000000000000000, 0.0000000000000000000 ) ) ;
#233 = CARTESIAN_POINT ( 'NONE',  ( -24.00000000000000400, -42.00000000000000700, 1.500000000000000000 ) ) ;
#234 = PERSON_AND_ORGANIZATION ( #209, #162 ) ;
#235 = LINE ( 'NONE', #105, #104 ) ;
#236 = APPROVAL_ROLE ( '' ) ;
#237 = MECHANICAL_CONTEXT ( 'NONE', #161, 'mechanical' ) ;
ENDSEC;
END-ISO-10303-21;
