ISO-10303-21;
HEADER;
FILE_DESCRIPTION (( 'STEP AP203' ),
    '1' );
FILE_NAME ('Web Model 19841_19886.step',
    '2022-04-06T15:18:38',
    ( 'WC' ),
    ( 'Windows Central' ),
    'SwSTEP 2.0',
    'SolidWorks 2021',
    '' );
FILE_SCHEMA (( 'CONFIG_CONTROL_DESIGN' ));
ENDSEC;

DATA;
#1 = DIRECTION ( 'NONE',  ( 0.000000000000000000, 0.000000000000000000, 1.000000000000000000 ) ) ;
#2 = CC_DESIGN_DATE_AND_TIME_ASSIGNMENT ( #45, #155, ( #17 ) ) ;
#3 = MANIFOLD_SOLID_BREP ( 'Boss-Extrude1', #19 ) ;
#4 = AXIS2_PLACEMENT_3D ( 'NONE', #157, #37, #118 ) ;
#5 = APPROVAL_DATE_TIME ( #151, #87 ) ;
#6 = CARTESIAN_POINT ( 'NONE',  ( 0.000000000000000000, 0.000000000000000000, 2.000000000000000000 ) ) ;
#7 = CIRCLE ( 'NONE', #86, 25.00000000000000000 ) ;
#8 = DIRECTION ( 'NONE',  ( 1.000000000000000000, 0.000000000000000000, 0.000000000000000000 ) ) ;
#9 = APPLICATION_CONTEXT ( 'configuration controlled 3d designs of mechanical parts and assemblies' ) ;
#10 = DIRECTION ( 'NONE',  ( -0.000000000000000000, -0.000000000000000000, -1.000000000000000000 ) ) ;
#11 = CARTESIAN_POINT ( 'NONE',  ( 0.000000000000000000, 0.000000000000000000, 2.000000000000000000 ) ) ;
#12 = ORIENTED_EDGE ( 'NONE', *, *, #132, .T. ) ;
#13 = VERTEX_POINT ( 'NONE', #103 ) ;
#14 = CC_DESIGN_PERSON_AND_ORGANIZATION_ASSIGNMENT ( #65, #51, ( #18 ) ) ;
#15 = PERSON_AND_ORGANIZATION ( #33, #122 ) ;
#16 = APPROVAL_STATUS ( 'not_yet_approved' ) ;
#17 = PRODUCT_DEFINITION ( 'UNKNOWN', '', #170, #168 ) ;
#18 = SECURITY_CLASSIFICATION ( '', '', #131 ) ;
#19 = CLOSED_SHELL ( 'NONE', ( #148, #78, #84, #57 ) ) ;
#20 = PERSON_AND_ORGANIZATION ( #33, #122 ) ;
#21 = CARTESIAN_POINT ( 'NONE',  ( 0.000000000000000000, 0.000000000000000000, 0.000000000000000000 ) ) ;
#22 = AXIS2_PLACEMENT_3D ( 'NONE', #60, #116, #89 ) ;
#23 = CARTESIAN_POINT ( 'NONE',  ( 25.00000000000000000, 3.061616997868383043E-15, 2.000000000000000000 ) ) ;
#24 = VERTEX_POINT ( 'NONE', #25 ) ;
#25 = CARTESIAN_POINT ( 'NONE',  ( -25.00000000000000000, 0.000000000000000000, 2.000000000000000000 ) ) ;
#26 = EDGE_LOOP ( 'NONE', ( #160, #144 ) ) ;
#27 = CC_DESIGN_PERSON_AND_ORGANIZATION_ASSIGNMENT ( #15, #167, ( #170 ) ) ;
#28 = DATE_TIME_ROLE ( 'classification_date' ) ;
#29 = LOCAL_TIME ( 11, 18, 38.00000000000000000, #88 ) ;
#30 = CYLINDRICAL_SURFACE ( 'NONE', #44, 25.00000000000000000 ) ;
#31 = DIRECTION ( 'NONE',  ( 1.000000000000000000, 0.000000000000000000, 0.000000000000000000 ) ) ;
#32 = COORDINATED_UNIVERSAL_TIME_OFFSET ( 5, 0, .BEHIND. ) ;
#33 = PERSON ( 'UNSPECIFIED', 'UNSPECIFIED', 'UNSPECIFIED', ('UNSPECIFIED'), ('UNSPECIFIED'), ('UNSPECIFIED') ) ;
#34 = PERSON_AND_ORGANIZATION ( #33, #122 ) ;
#35 = DIRECTION ( 'NONE',  ( 0.000000000000000000, 0.000000000000000000, 1.000000000000000000 ) ) ;
#36 = FACE_OUTER_BOUND ( 'NONE', #104, .T. ) ;
#37 = DIRECTION ( 'NONE',  ( -0.000000000000000000, -0.000000000000000000, -1.000000000000000000 ) ) ;
#38 = EDGE_LOOP ( 'NONE', ( #75, #146, #128, #73 ) ) ;
#39 = ORIENTED_EDGE ( 'NONE', *, *, #95, .T. ) ;
#40 = LOCAL_TIME ( 11, 18, 38.00000000000000000, #150 ) ;
#41 = APPROVAL_ROLE ( '' ) ;
#42 = COORDINATED_UNIVERSAL_TIME_OFFSET ( 5, 0, .BEHIND. ) ;
#43 = CC_DESIGN_PERSON_AND_ORGANIZATION_ASSIGNMENT ( #113, #115, ( #164 ) ) ;
#44 = AXIS2_PLACEMENT_3D ( 'NONE', #55, #10, #72 ) ;
#45 = DATE_AND_TIME ( #138, #29 ) ;
#46 = CYLINDRICAL_SURFACE ( 'NONE', #4, 25.00000000000000000 ) ;
#47 = DIRECTION ( 'NONE',  ( 1.000000000000000000, 0.000000000000000000, -0.000000000000000000 ) ) ;
#48 = VECTOR ( 'NONE', #125, 1000.000000000000000 ) ;
#49 = DIRECTION ( 'NONE',  ( 1.000000000000000000, 0.000000000000000000, 0.000000000000000000 ) ) ;
#50 = CC_DESIGN_APPROVAL ( #87, ( #18 ) ) ;
#51 = PERSON_AND_ORGANIZATION_ROLE ( 'classification_officer' ) ;
#52 = PERSON_AND_ORGANIZATION ( #33, #122 ) ;
#53 = APPROVAL ( #16, 'UNSPECIFIED' ) ;
#54 = CALENDAR_DATE ( 2022, 6, 4 ) ;
#55 = CARTESIAN_POINT ( 'NONE',  ( 0.000000000000000000, 0.000000000000000000, 2.000000000000000000 ) ) ;
#56 = PERSON_AND_ORGANIZATION_ROLE ( 'creator' ) ;
#57 = ADVANCED_FACE ( 'NONE', ( #36 ), #142, .F. ) ;
#58 =( NAMED_UNIT ( * ) PLANE_ANGLE_UNIT ( ) SI_UNIT ( $, .RADIAN. ) );
#59 = APPROVAL_PERSON_ORGANIZATION ( #98, #87, #41 ) ;
#60 = CARTESIAN_POINT ( 'NONE',  ( 0.000000000000000000, 0.000000000000000000, 0.000000000000000000 ) ) ;
#61 = VERTEX_POINT ( 'NONE', #171 ) ;
#62 = FACE_OUTER_BOUND ( 'NONE', #38, .T. ) ;
#63 = ORIENTED_EDGE ( 'NONE', *, *, #111, .F. ) ;
#64 = VECTOR ( 'NONE', #126, 1000.000000000000000 ) ;
#65 = PERSON_AND_ORGANIZATION ( #33, #122 ) ;
#66 = CC_DESIGN_DATE_AND_TIME_ASSIGNMENT ( #123, #28, ( #18 ) ) ;
#67 = CALENDAR_DATE ( 2022, 6, 4 ) ;
#68 = CALENDAR_DATE ( 2022, 6, 4 ) ;
#69 = LOCAL_TIME ( 11, 18, 38.00000000000000000, #32 ) ;
#70 = PERSON_AND_ORGANIZATION ( #33, #122 ) ;
#71 =( LENGTH_UNIT ( ) NAMED_UNIT ( * ) SI_UNIT ( .MILLI., .METRE. ) );
#72 = DIRECTION ( 'NONE',  ( -1.000000000000000000, 0.000000000000000000, 0.000000000000000000 ) ) ;
#73 = ORIENTED_EDGE ( 'NONE', *, *, #111, .T. ) ;
#74 = LOCAL_TIME ( 11, 18, 38.00000000000000000, #81 ) ;
#75 = ORIENTED_EDGE ( 'NONE', *, *, #132, .F. ) ;
#76 = DIRECTION ( 'NONE',  ( 0.000000000000000000, 0.000000000000000000, 1.000000000000000000 ) ) ;
#77 = AXIS2_PLACEMENT_3D ( 'NONE', #108, #1, #49 ) ;
#78 = ADVANCED_FACE ( 'NONE', ( #62 ), #46, .T. ) ;
#79 = CIRCLE ( 'NONE', #166, 25.00000000000000000 ) ;
#80 = APPROVAL_ROLE ( '' ) ;
#81 = COORDINATED_UNIVERSAL_TIME_OFFSET ( 5, 0, .BEHIND. ) ;
#82 =( GEOMETRIC_REPRESENTATION_CONTEXT ( 3 ) GLOBAL_UNCERTAINTY_ASSIGNED_CONTEXT ( ( #112 ) ) GLOBAL_UNIT_ASSIGNED_CONTEXT ( ( #71, #58, #135 ) ) REPRESENTATION_CONTEXT ( 'NONE', 'WORKASPACE' ) );
#83 = CARTESIAN_POINT ( 'NONE',  ( 25.00000000000000000, 3.061616997868383043E-15, 2.000000000000000000 ) ) ;
#84 = ADVANCED_FACE ( 'NONE', ( #90 ), #129, .T. ) ;
#85 = LINE ( 'NONE', #23, #48 ) ;
#86 = AXIS2_PLACEMENT_3D ( 'NONE', #145, #76, #174 ) ;
#87 = APPROVAL ( #120, 'UNSPECIFIED' ) ;
#88 = COORDINATED_UNIVERSAL_TIME_OFFSET ( 5, 0, .BEHIND. ) ;
#89 = DIRECTION ( 'NONE',  ( 1.000000000000000000, 0.000000000000000000, -0.000000000000000000 ) ) ;
#90 = FACE_OUTER_BOUND ( 'NONE', #26, .T. ) ;
#91 = AXIS2_PLACEMENT_3D ( 'NONE', #11, #117, #47 ) ;
#92 = LOCAL_TIME ( 11, 18, 38.00000000000000000, #42 ) ;
#93 = DIRECTION ( 'NONE',  ( 1.000000000000000000, 0.000000000000000000, 0.000000000000000000 ) ) ;
#94 = ORIENTED_EDGE ( 'NONE', *, *, #107, .F. ) ;
#95 = EDGE_CURVE ( 'NONE', #61, #13, #79, .T. ) ;
#96 = APPROVAL_PERSON_ORGANIZATION ( #70, #53, #80 ) ;
#97 = PRODUCT_RELATED_PRODUCT_CATEGORY ( 'detail', '', ( #164 ) ) ;
#98 = PERSON_AND_ORGANIZATION ( #33, #122 ) ;
#99 = PERSON_AND_ORGANIZATION_ROLE ( 'creator' ) ;
#100 = DATE_AND_TIME ( #169, #69 ) ;
#101 = APPLICATION_PROTOCOL_DEFINITION ( 'international standard', 'config_control_design', 1994, #173 ) ;
#102 = APPLICATION_PROTOCOL_DEFINITION ( 'international standard', 'config_control_design', 1994, #9 ) ;
#103 = CARTESIAN_POINT ( 'NONE',  ( -25.00000000000000000, 0.000000000000000000, 0.000000000000000000 ) ) ;
#104 = EDGE_LOOP ( 'NONE', ( #63, #172 ) ) ;
#105 = CARTESIAN_POINT ( 'NONE',  ( 0.000000000000000000, 0.000000000000000000, 0.000000000000000000 ) ) ;
#106 = CIRCLE ( 'NONE', #77, 25.00000000000000000 ) ;
#107 = EDGE_CURVE ( 'NONE', #156, #24, #7, .T. ) ;
#108 = CARTESIAN_POINT ( 'NONE',  ( 0.000000000000000000, 0.000000000000000000, 0.000000000000000000 ) ) ;
#109 = EDGE_LOOP ( 'NONE', ( #94, #12, #39, #130 ) ) ;
#110 = DATE_AND_TIME ( #54, #74 ) ;
#111 = EDGE_CURVE ( 'NONE', #13, #61, #106, .T. ) ;
#112 = UNCERTAINTY_MEASURE_WITH_UNIT (LENGTH_MEASURE( 1.000000000000000082E-05 ), #71, 'distance_accuracy_value', 'NONE');
#113 = PERSON_AND_ORGANIZATION ( #33, #122 ) ;
#114 = CARTESIAN_POINT ( 'NONE',  ( -25.00000000000000000, 0.000000000000000000, 2.000000000000000000 ) ) ;
#115 = PERSON_AND_ORGANIZATION_ROLE ( 'design_owner' ) ;
#116 = DIRECTION ( 'NONE',  ( 0.000000000000000000, 0.000000000000000000, 1.000000000000000000 ) ) ;
#117 = DIRECTION ( 'NONE',  ( 0.000000000000000000, 0.000000000000000000, 1.000000000000000000 ) ) ;
#118 = DIRECTION ( 'NONE',  ( -1.000000000000000000, 0.000000000000000000, 0.000000000000000000 ) ) ;
#119 = CC_DESIGN_APPROVAL ( #161, ( #17 ) ) ;
#120 = APPROVAL_STATUS ( 'not_yet_approved' ) ;
#121 = ADVANCED_BREP_SHAPE_REPRESENTATION ( 'Web Model 19841_19886', ( #3, #134 ), #82 ) ;
#122 = ORGANIZATION ( 'UNSPECIFIED', 'UNSPECIFIED', '' ) ;
#123 = DATE_AND_TIME ( #67, #40 ) ;
#124 = DIRECTION ( 'NONE',  ( 0.000000000000000000, 0.000000000000000000, 1.000000000000000000 ) ) ;
#125 = DIRECTION ( 'NONE',  ( -0.000000000000000000, -0.000000000000000000, -1.000000000000000000 ) ) ;
#126 = DIRECTION ( 'NONE',  ( -0.000000000000000000, -0.000000000000000000, -1.000000000000000000 ) ) ;
#127 = CC_DESIGN_PERSON_AND_ORGANIZATION_ASSIGNMENT ( #20, #56, ( #17 ) ) ;
#128 = ORIENTED_EDGE ( 'NONE', *, *, #175, .T. ) ;
#129 = PLANE ( 'NONE',  #91 ) ;
#130 = ORIENTED_EDGE ( 'NONE', *, *, #175, .F. ) ;
#131 = SECURITY_CLASSIFICATION_LEVEL ( 'unclassified' ) ;
#132 = EDGE_CURVE ( 'NONE', #156, #61, #85, .T. ) ;
#133 = APPROVAL_DATE_TIME ( #110, #53 ) ;
#134 = AXIS2_PLACEMENT_3D ( 'NONE', #21, #124, #8 ) ;
#135 =( NAMED_UNIT ( * ) SI_UNIT ( $, .STERADIAN. ) SOLID_ANGLE_UNIT ( ) );
#136 = APPROVAL_DATE_TIME ( #100, #161 ) ;
#137 = MECHANICAL_CONTEXT ( 'NONE', #173, 'mechanical' ) ;
#138 = CALENDAR_DATE ( 2022, 6, 4 ) ;
#139 = EDGE_CURVE ( 'NONE', #24, #156, #149, .T. ) ;
#140 = CC_DESIGN_PERSON_AND_ORGANIZATION_ASSIGNMENT ( #52, #99, ( #170 ) ) ;
#141 = FACE_OUTER_BOUND ( 'NONE', #109, .T. ) ;
#142 = PLANE ( 'NONE',  #22 ) ;
#143 = CC_DESIGN_APPROVAL ( #53, ( #170 ) ) ;
#144 = ORIENTED_EDGE ( 'NONE', *, *, #107, .T. ) ;
#145 = CARTESIAN_POINT ( 'NONE',  ( 0.000000000000000000, 0.000000000000000000, 2.000000000000000000 ) ) ;
#146 = ORIENTED_EDGE ( 'NONE', *, *, #139, .F. ) ;
#147 = APPROVAL_PERSON_ORGANIZATION ( #34, #161, #153 ) ;
#148 = ADVANCED_FACE ( 'NONE', ( #141 ), #30, .T. ) ;
#149 = CIRCLE ( 'NONE', #159, 25.00000000000000000 ) ;
#150 = COORDINATED_UNIVERSAL_TIME_OFFSET ( 5, 0, .BEHIND. ) ;
#151 = DATE_AND_TIME ( #68, #92 ) ;
#152 = LINE ( 'NONE', #114, #64 ) ;
#153 = APPROVAL_ROLE ( '' ) ;
#154 = APPROVAL_STATUS ( 'not_yet_approved' ) ;
#155 = DATE_TIME_ROLE ( 'creation_date' ) ;
#156 = VERTEX_POINT ( 'NONE', #83 ) ;
#157 = CARTESIAN_POINT ( 'NONE',  ( 0.000000000000000000, 0.000000000000000000, 2.000000000000000000 ) ) ;
#158 = DIRECTION ( 'NONE',  ( 0.000000000000000000, 0.000000000000000000, 1.000000000000000000 ) ) ;
#159 = AXIS2_PLACEMENT_3D ( 'NONE', #6, #35, #31 ) ;
#160 = ORIENTED_EDGE ( 'NONE', *, *, #139, .T. ) ;
#161 = APPROVAL ( #154, 'UNSPECIFIED' ) ;
#162 = CC_DESIGN_SECURITY_CLASSIFICATION ( #18, ( #170 ) ) ;
#163 = PRODUCT_DEFINITION_SHAPE ( 'NONE', 'NONE',  #17 ) ;
#164 = PRODUCT ( 'Web Model 19841_19886', 'Web Model 19841_19886', '', ( #137 ) ) ;
#165 = SHAPE_DEFINITION_REPRESENTATION ( #163, #121 ) ;
#166 = AXIS2_PLACEMENT_3D ( 'NONE', #105, #158, #93 ) ;
#167 = PERSON_AND_ORGANIZATION_ROLE ( 'design_supplier' ) ;
#168 = DESIGN_CONTEXT ( 'detailed design', #9, 'design' ) ;
#169 = CALENDAR_DATE ( 2022, 6, 4 ) ;
#170 = PRODUCT_DEFINITION_FORMATION_WITH_SPECIFIED_SOURCE ( 'ANY', '', #164, .NOT_KNOWN. ) ;
#171 = CARTESIAN_POINT ( 'NONE',  ( 25.00000000000000000, 3.061616997868383043E-15, 0.000000000000000000 ) ) ;
#172 = ORIENTED_EDGE ( 'NONE', *, *, #95, .F. ) ;
#173 = APPLICATION_CONTEXT ( 'configuration controlled 3d designs of mechanical parts and assemblies' ) ;
#174 = DIRECTION ( 'NONE',  ( 1.000000000000000000, 0.000000000000000000, 0.000000000000000000 ) ) ;
#175 = EDGE_CURVE ( 'NONE', #24, #13, #152, .T. ) ;
ENDSEC;
END-ISO-10303-21;
