ISO-10303-21;
HEADER;
FILE_DESCRIPTION (( 'STEP AP203' ),
    '1' );
FILE_NAME ('34428_37012.step',
    '2017-09-06T15:36:53',
    ( '' ),
    ( '' ),
    'SwSTEP 2.0',
    'SolidWorks 2016',
    '' );
FILE_SCHEMA (( 'CONFIG_CONTROL_DESIGN' ));
ENDSEC;

DATA;
#1 = CALENDAR_DATE ( 2017, 6, 9 ) ;
#2 = CC_DESIGN_PERSON_AND_ORGANIZATION_ASSIGNMENT ( #155, #169, ( #50 ) ) ;
#3 = PERSON_AND_ORGANIZATION ( #153, #171 ) ;
#4 = ORIENTED_EDGE ( 'NONE', *, *, #25, .F. ) ;
#5 =( NAMED_UNIT ( * ) PLANE_ANGLE_UNIT ( ) SI_UNIT ( $, .RADIAN. ) );
#6 =( NAMED_UNIT ( * ) SI_UNIT ( $, .STERADIAN. ) SOLID_ANGLE_UNIT ( ) );
#7 =( LENGTH_UNIT ( ) NAMED_UNIT ( * ) SI_UNIT ( .MILLI., .METRE. ) );
#8 = PERSON_AND_ORGANIZATION ( #153, #171 ) ;
#9 = CC_DESIGN_DATE_AND_TIME_ASSIGNMENT ( #90, #154, ( #158 ) ) ;
#10 = APPROVAL_ROLE ( '' ) ;
#11 = PLANE ( 'NONE',  #33 ) ;
#12 = APPROVAL ( #83, 'UNSPECIFIED' ) ;
#13 = PERSON_AND_ORGANIZATION ( #153, #171 ) ;
#14 = EDGE_LOOP ( 'NONE', ( #152, #62, #92, #28 ) ) ;
#15 = LOCAL_TIME ( 11, 36, 53.00000000000000000, #72 ) ;
#16 = ORIENTED_EDGE ( 'NONE', *, *, #127, .T. ) ;
#17 = ADVANCED_FACE ( 'NONE', ( #103 ), #165, .T. ) ;
#18 = DIRECTION ( 'NONE',  ( 1.000000000000000000, 0.0000000000000000000, -0.0000000000000000000 ) ) ;
#19 = VECTOR ( 'NONE', #39, 1000.000000000000000 ) ;
#20 = MECHANICAL_CONTEXT ( 'NONE', #133, 'mechanical' ) ;
#21 = APPROVAL_ROLE ( '' ) ;
#22 = ADVANCED_FACE ( 'NONE', ( #74 ), #11, .F. ) ;
#23 = PERSON_AND_ORGANIZATION_ROLE ( 'creator' ) ;
#24 = EDGE_LOOP ( 'NONE', ( #46, #100 ) ) ;
#25 = EDGE_CURVE ( 'NONE', #148, #88, #131, .T. ) ;
#26 = CARTESIAN_POINT ( 'NONE',  ( 0.0000000000000000000, 0.0000000000000000000, 2.000000000000000000 ) ) ;
#27 = DIRECTION ( 'NONE',  ( 0.0000000000000000000, 0.0000000000000000000, 1.000000000000000000 ) ) ;
#28 = ORIENTED_EDGE ( 'NONE', *, *, #127, .F. ) ;
#29 = APPROVAL_PERSON_ORGANIZATION ( #120, #91, #136 ) ;
#30 = APPROVAL_DATE_TIME ( #69, #91 ) ;
#31 = APPROVAL ( #170, 'UNSPECIFIED' ) ;
#32 = CALENDAR_DATE ( 2017, 6, 9 ) ;
#33 = AXIS2_PLACEMENT_3D ( 'NONE', #110, #27, #125 ) ;
#34 = CIRCLE ( 'NONE', #55, 25.00000000000000000 ) ;
#35 = DIRECTION ( 'NONE',  ( 0.0000000000000000000, 0.0000000000000000000, 1.000000000000000000 ) ) ;
#36 = DIRECTION ( 'NONE',  ( 1.000000000000000000, 0.0000000000000000000, 0.0000000000000000000 ) ) ;
#37 = CIRCLE ( 'NONE', #129, 25.00000000000000000 ) ;
#38 = DIRECTION ( 'NONE',  ( -0.0000000000000000000, -0.0000000000000000000, -1.000000000000000000 ) ) ;
#39 = DIRECTION ( 'NONE',  ( -0.0000000000000000000, -0.0000000000000000000, -1.000000000000000000 ) ) ;
#40 = SHAPE_DEFINITION_REPRESENTATION ( #145, #157 ) ;
#41 = CARTESIAN_POINT ( 'NONE',  ( 25.00000000000000000, 3.061616997868383000E-015, 0.0000000000000000000 ) ) ;
#42 = CC_DESIGN_PERSON_AND_ORGANIZATION_ASSIGNMENT ( #13, #23, ( #115 ) ) ;
#43 = PLANE ( 'NONE',  #80 ) ;
#44 = AXIS2_PLACEMENT_3D ( 'NONE', #96, #54, #106 ) ;
#45 = COORDINATED_UNIVERSAL_TIME_OFFSET ( 5, 0, .BEHIND. ) ;
#46 = ORIENTED_EDGE ( 'NONE', *, *, #98, .F. ) ;
#47 = LINE ( 'NONE', #122, #63 ) ;
#48 = CC_DESIGN_DATE_AND_TIME_ASSIGNMENT ( #68, #123, ( #66 ) ) ;
#49 = EDGE_CURVE ( 'NONE', #88, #148, #34, .T. ) ;
#50 = PRODUCT ( '34428_37012', '34428_37012', '', ( #20 ) ) ;
#51 = APPLICATION_PROTOCOL_DEFINITION ( 'international standard', 'config_control_design', 1994, #107 ) ;
#52 = APPROVAL_DATE_TIME ( #102, #31 ) ;
#53 = AXIS2_PLACEMENT_3D ( 'NONE', #86, #161, #109 ) ;
#54 = DIRECTION ( 'NONE',  ( 0.0000000000000000000, 0.0000000000000000000, 1.000000000000000000 ) ) ;
#55 = AXIS2_PLACEMENT_3D ( 'NONE', #26, #173, #36 ) ;
#56 = PERSON_AND_ORGANIZATION ( #153, #171 ) ;
#57 = VERTEX_POINT ( 'NONE', #41 ) ;
#58 = CYLINDRICAL_SURFACE ( 'NONE', #162, 25.00000000000000000 ) ;
#59 = CC_DESIGN_APPROVAL ( #12, ( #158 ) ) ;
#60 = ORIENTED_EDGE ( 'NONE', *, *, #134, .F. ) ;
#61 = ADVANCED_FACE ( 'NONE', ( #111 ), #43, .T. ) ;
#62 = ORIENTED_EDGE ( 'NONE', *, *, #134, .T. ) ;
#63 = VECTOR ( 'NONE', #38, 1000.000000000000000 ) ;
#64 = CARTESIAN_POINT ( 'NONE',  ( -25.00000000000000000, 0.0000000000000000000, 2.000000000000000000 ) ) ;
#65 = DIRECTION ( 'NONE',  ( 0.0000000000000000000, 0.0000000000000000000, 1.000000000000000000 ) ) ;
#66 = SECURITY_CLASSIFICATION ( '', '', #121 ) ;
#67 = DIRECTION ( 'NONE',  ( 1.000000000000000000, 0.0000000000000000000, 0.0000000000000000000 ) ) ;
#68 = DATE_AND_TIME ( #149, #151 ) ;
#69 = DATE_AND_TIME ( #1, #146 ) ;
#70 = CARTESIAN_POINT ( 'NONE',  ( 0.0000000000000000000, 0.0000000000000000000, 2.000000000000000000 ) ) ;
#71 = CC_DESIGN_APPROVAL ( #31, ( #115 ) ) ;
#72 = COORDINATED_UNIVERSAL_TIME_OFFSET ( 5, 0, .BEHIND. ) ;
#73 = AXIS2_PLACEMENT_3D ( 'NONE', #144, #65, #143 ) ;
#74 = FACE_OUTER_BOUND ( 'NONE', #24, .T. ) ;
#75 = LOCAL_TIME ( 11, 36, 53.00000000000000000, #130 ) ;
#76 = ORIENTED_EDGE ( 'NONE', *, *, #49, .T. ) ;
#77 = APPLICATION_PROTOCOL_DEFINITION ( 'international standard', 'config_control_design', 1994, #133 ) ;
#78 = APPROVAL_STATUS ( 'not_yet_approved' ) ;
#79 = CC_DESIGN_PERSON_AND_ORGANIZATION_ASSIGNMENT ( #8, #168, ( #115 ) ) ;
#80 = AXIS2_PLACEMENT_3D ( 'NONE', #132, #135, #18 ) ;
#81 = PERSON_AND_ORGANIZATION ( #153, #171 ) ;
#82 = EDGE_LOOP ( 'NONE', ( #60, #4, #16, #124 ) ) ;
#83 = APPROVAL_STATUS ( 'not_yet_approved' ) ;
#84 = PERSON_AND_ORGANIZATION ( #153, #171 ) ;
#85 = DIRECTION ( 'NONE',  ( 1.000000000000000000, 0.0000000000000000000, 0.0000000000000000000 ) ) ;
#86 = CARTESIAN_POINT ( 'NONE',  ( 0.0000000000000000000, 0.0000000000000000000, 2.000000000000000000 ) ) ;
#87 = CALENDAR_DATE ( 2017, 6, 9 ) ;
#88 = VERTEX_POINT ( 'NONE', #93 ) ;
#89 = PRODUCT_RELATED_PRODUCT_CATEGORY ( 'detail', '', ( #50 ) ) ;
#90 = DATE_AND_TIME ( #32, #75 ) ;
#91 = APPROVAL ( #78, 'UNSPECIFIED' ) ;
#92 = ORIENTED_EDGE ( 'NONE', *, *, #119, .T. ) ;
#93 = CARTESIAN_POINT ( 'NONE',  ( 25.00000000000000000, 3.061616997868383000E-015, 2.000000000000000000 ) ) ;
#94 = CARTESIAN_POINT ( 'NONE',  ( 0.0000000000000000000, 0.0000000000000000000, 0.0000000000000000000 ) ) ;
#95 = COORDINATED_UNIVERSAL_TIME_OFFSET ( 5, 0, .BEHIND. ) ;
#96 = CARTESIAN_POINT ( 'NONE',  ( 0.0000000000000000000, 0.0000000000000000000, 0.0000000000000000000 ) ) ;
#97 = CIRCLE ( 'NONE', #73, 25.00000000000000000 ) ;
#98 = EDGE_CURVE ( 'NONE', #164, #57, #97, .T. ) ;
#99 = MANIFOLD_SOLID_BREP ( 'Boss-Extrude1', #166 ) ;
#100 = ORIENTED_EDGE ( 'NONE', *, *, #119, .F. ) ;
#101 = CC_DESIGN_PERSON_AND_ORGANIZATION_ASSIGNMENT ( #3, #118, ( #66 ) ) ;
#102 = DATE_AND_TIME ( #87, #141 ) ;
#103 = FACE_OUTER_BOUND ( 'NONE', #14, .T. ) ;
#104 = UNCERTAINTY_MEASURE_WITH_UNIT (LENGTH_MEASURE( 1.000000000000000100E-005 ), #7, 'distance_accuracy_value', 'NONE');
#105 = DATE_AND_TIME ( #126, #15 ) ;
#106 = DIRECTION ( 'NONE',  ( 1.000000000000000000, 0.0000000000000000000, 0.0000000000000000000 ) ) ;
#107 = APPLICATION_CONTEXT ( 'configuration controlled 3d designs of mechanical parts and assemblies' ) ;
#108 = DIRECTION ( 'NONE',  ( -1.000000000000000000, 0.0000000000000000000, 0.0000000000000000000 ) ) ;
#109 = DIRECTION ( 'NONE',  ( -1.000000000000000000, 0.0000000000000000000, 0.0000000000000000000 ) ) ;
#110 = CARTESIAN_POINT ( 'NONE',  ( 0.0000000000000000000, 0.0000000000000000000, 0.0000000000000000000 ) ) ;
#111 = FACE_OUTER_BOUND ( 'NONE', #128, .T. ) ;
#112 = COORDINATED_UNIVERSAL_TIME_OFFSET ( 5, 0, .BEHIND. ) ;
#113 = CC_DESIGN_APPROVAL ( #91, ( #66 ) ) ;
#114 = ADVANCED_FACE ( 'NONE', ( #174 ), #58, .T. ) ;
#115 = PRODUCT_DEFINITION_FORMATION_WITH_SPECIFIED_SOURCE ( 'ANY', '', #50, .NOT_KNOWN. ) ;
#116 = LINE ( 'NONE', #147, #19 ) ;
#117 = AXIS2_PLACEMENT_3D ( 'NONE', #70, #163, #85 ) ;
#118 = PERSON_AND_ORGANIZATION_ROLE ( 'classification_officer' ) ;
#119 = EDGE_CURVE ( 'NONE', #57, #164, #37, .T. ) ;
#120 = PERSON_AND_ORGANIZATION ( #153, #171 ) ;
#121 = SECURITY_CLASSIFICATION_LEVEL ( 'unclassified' ) ;
#122 = CARTESIAN_POINT ( 'NONE',  ( 25.00000000000000000, 3.061616997868383000E-015, 2.000000000000000000 ) ) ;
#123 = DATE_TIME_ROLE ( 'classification_date' ) ;
#124 = ORIENTED_EDGE ( 'NONE', *, *, #98, .T. ) ;
#125 = DIRECTION ( 'NONE',  ( 1.000000000000000000, 0.0000000000000000000, -0.0000000000000000000 ) ) ;
#126 = CALENDAR_DATE ( 2017, 6, 9 ) ;
#127 = EDGE_CURVE ( 'NONE', #148, #164, #116, .T. ) ;
#128 = EDGE_LOOP ( 'NONE', ( #160, #76 ) ) ;
#129 = AXIS2_PLACEMENT_3D ( 'NONE', #94, #35, #67 ) ;
#130 = COORDINATED_UNIVERSAL_TIME_OFFSET ( 5, 0, .BEHIND. ) ;
#131 = CIRCLE ( 'NONE', #117, 25.00000000000000000 ) ;
#132 = CARTESIAN_POINT ( 'NONE',  ( 0.0000000000000000000, 0.0000000000000000000, 2.000000000000000000 ) ) ;
#133 = APPLICATION_CONTEXT ( 'configuration controlled 3d designs of mechanical parts and assemblies' ) ;
#134 = EDGE_CURVE ( 'NONE', #88, #57, #47, .T. ) ;
#135 = DIRECTION ( 'NONE',  ( 0.0000000000000000000, 0.0000000000000000000, 1.000000000000000000 ) ) ;
#136 = APPROVAL_ROLE ( '' ) ;
#137 =( GEOMETRIC_REPRESENTATION_CONTEXT ( 3 ) GLOBAL_UNCERTAINTY_ASSIGNED_CONTEXT ( ( #104 ) ) GLOBAL_UNIT_ASSIGNED_CONTEXT ( ( #7, #5, #6 ) ) REPRESENTATION_CONTEXT ( 'NONE', 'WORKASPACE' ) );
#138 = APPROVAL_DATE_TIME ( #105, #12 ) ;
#139 = DIRECTION ( 'NONE',  ( -0.0000000000000000000, -0.0000000000000000000, -1.000000000000000000 ) ) ;
#140 = DESIGN_CONTEXT ( 'detailed design', #107, 'design' ) ;
#141 = LOCAL_TIME ( 11, 36, 53.00000000000000000, #95 ) ;
#142 = APPROVAL_PERSON_ORGANIZATION ( #56, #12, #21 ) ;
#143 = DIRECTION ( 'NONE',  ( 1.000000000000000000, 0.0000000000000000000, 0.0000000000000000000 ) ) ;
#144 = CARTESIAN_POINT ( 'NONE',  ( 0.0000000000000000000, 0.0000000000000000000, 0.0000000000000000000 ) ) ;
#145 = PRODUCT_DEFINITION_SHAPE ( 'NONE', 'NONE',  #158 ) ;
#146 = LOCAL_TIME ( 11, 36, 53.00000000000000000, #112 ) ;
#147 = CARTESIAN_POINT ( 'NONE',  ( -25.00000000000000000, 0.0000000000000000000, 2.000000000000000000 ) ) ;
#148 = VERTEX_POINT ( 'NONE', #64 ) ;
#149 = CALENDAR_DATE ( 2017, 6, 9 ) ;
#150 = APPROVAL_PERSON_ORGANIZATION ( #81, #31, #10 ) ;
#151 = LOCAL_TIME ( 11, 36, 53.00000000000000000, #45 ) ;
#152 = ORIENTED_EDGE ( 'NONE', *, *, #49, .F. ) ;
#153 = PERSON ( 'UNSPECIFIED', 'UNSPECIFIED', 'UNSPECIFIED', ('UNSPECIFIED'), ('UNSPECIFIED'), ('UNSPECIFIED') ) ;
#154 = DATE_TIME_ROLE ( 'creation_date' ) ;
#155 = PERSON_AND_ORGANIZATION ( #153, #171 ) ;
#156 = CC_DESIGN_SECURITY_CLASSIFICATION ( #66, ( #115 ) ) ;
#157 = ADVANCED_BREP_SHAPE_REPRESENTATION ( '34428_37012', ( #99, #44 ), #137 ) ;
#158 = PRODUCT_DEFINITION ( 'UNKNOWN', '', #115, #140 ) ;
#159 = CARTESIAN_POINT ( 'NONE',  ( -25.00000000000000000, 0.0000000000000000000, 0.0000000000000000000 ) ) ;
#160 = ORIENTED_EDGE ( 'NONE', *, *, #25, .T. ) ;
#161 = DIRECTION ( 'NONE',  ( -0.0000000000000000000, -0.0000000000000000000, -1.000000000000000000 ) ) ;
#162 = AXIS2_PLACEMENT_3D ( 'NONE', #172, #139, #108 ) ;
#163 = DIRECTION ( 'NONE',  ( 0.0000000000000000000, 0.0000000000000000000, 1.000000000000000000 ) ) ;
#164 = VERTEX_POINT ( 'NONE', #159 ) ;
#165 = CYLINDRICAL_SURFACE ( 'NONE', #53, 25.00000000000000000 ) ;
#166 = CLOSED_SHELL ( 'NONE', ( #17, #114, #61, #22 ) ) ;
#167 = PERSON_AND_ORGANIZATION_ROLE ( 'creator' ) ;
#168 = PERSON_AND_ORGANIZATION_ROLE ( 'design_supplier' ) ;
#169 = PERSON_AND_ORGANIZATION_ROLE ( 'design_owner' ) ;
#170 = APPROVAL_STATUS ( 'not_yet_approved' ) ;
#171 = ORGANIZATION ( 'UNSPECIFIED', 'UNSPECIFIED', '' ) ;
#172 = CARTESIAN_POINT ( 'NONE',  ( 0.0000000000000000000, 0.0000000000000000000, 2.000000000000000000 ) ) ;
#173 = DIRECTION ( 'NONE',  ( 0.0000000000000000000, 0.0000000000000000000, 1.000000000000000000 ) ) ;
#174 = FACE_OUTER_BOUND ( 'NONE', #82, .T. ) ;
#175 = CC_DESIGN_PERSON_AND_ORGANIZATION_ASSIGNMENT ( #84, #167, ( #158 ) ) ;
ENDSEC;
END-ISO-10303-21;
