ISO-10303-21;
HEADER;
FILE_DESCRIPTION (( 'STEP AP203' ),
    '1' );
FILE_NAME ('Web Model 17256_17256.step',
    '2021-04-20T13:37:48',
    ( '' ),
    ( '' ),
    'SwSTEP 2.0',
    'SolidWorks 2018',
    '' );
FILE_SCHEMA (( 'CONFIG_CONTROL_DESIGN' ));
ENDSEC;

DATA;
#1 = VERTEX_POINT ( 'NONE', #160 ) ;
#2 = CC_DESIGN_APPROVAL ( #35, ( #80 ) ) ;
#3 = CALENDAR_DATE ( 2021, 20, 4 ) ;
#4 = APPLICATION_PROTOCOL_DEFINITION ( 'international standard', 'config_control_design', 1994, #15 ) ;
#5 = CLOSED_SHELL ( 'NONE', ( #123, #127, #161, #125 ) ) ;
#6 = COORDINATED_UNIVERSAL_TIME_OFFSET ( 5, 0, .BEHIND. ) ;
#7 = FACE_OUTER_BOUND ( 'NONE', #132, .T. ) ;
#8 = CARTESIAN_POINT ( 'NONE',  ( 0.000000000000000000, 0.000000000000000000, 0.000000000000000000 ) ) ;
#9 = CARTESIAN_POINT ( 'NONE',  ( 0.000000000000000000, 0.000000000000000000, 0.000000000000000000 ) ) ;
#10 = DIRECTION ( 'NONE',  ( 1.000000000000000000, 0.000000000000000000, -0.000000000000000000 ) ) ;
#11 = EDGE_CURVE ( 'NONE', #1, #173, #169, .T. ) ;
#12 = DIRECTION ( 'NONE',  ( 1.000000000000000000, 0.000000000000000000, 0.000000000000000000 ) ) ;
#13 = DIRECTION ( 'NONE',  ( -0.000000000000000000, -0.000000000000000000, -1.000000000000000000 ) ) ;
#14 = PERSON_AND_ORGANIZATION_ROLE ( 'creator' ) ;
#15 = APPLICATION_CONTEXT ( 'configuration controlled 3d designs of mechanical parts and assemblies' ) ;
#16 = SHAPE_DEFINITION_REPRESENTATION ( #74, #77 ) ;
#17 = EDGE_CURVE ( 'NONE', #52, #173, #114, .T. ) ;
#18 = ORIENTED_EDGE ( 'NONE', *, *, #139, .T. ) ;
#19 = APPLICATION_PROTOCOL_DEFINITION ( 'international standard', 'config_control_design', 1994, #174 ) ;
#20 =( NAMED_UNIT ( * ) SI_UNIT ( $, .STERADIAN. ) SOLID_ANGLE_UNIT ( ) );
#21 = COORDINATED_UNIVERSAL_TIME_OFFSET ( 5, 0, .BEHIND. ) ;
#22 = CIRCLE ( 'NONE', #126, 6.250000000000001776 ) ;
#23 = EDGE_CURVE ( 'NONE', #60, #1, #90, .T. ) ;
#24 = APPROVAL_PERSON_ORGANIZATION ( #51, #35, #44 ) ;
#25 = AXIS2_PLACEMENT_3D ( 'NONE', #86, #73, #148 ) ;
#26 = ORIENTED_EDGE ( 'NONE', *, *, #23, .F. ) ;
#27 = PERSON ( 'UNSPECIFIED', 'UNSPECIFIED', 'UNSPECIFIED', ('UNSPECIFIED'), ('UNSPECIFIED'), ('UNSPECIFIED') ) ;
#28 = CARTESIAN_POINT ( 'NONE',  ( 6.250000000000001776, 7.654042494670959579E-16, 0.000000000000000000 ) ) ;
#29 = PRODUCT_RELATED_PRODUCT_CATEGORY ( 'detail', '', ( #146 ) ) ;
#30 = CALENDAR_DATE ( 2021, 20, 4 ) ;
#31 = EDGE_CURVE ( 'NONE', #60, #52, #48, .T. ) ;
#32 = SECURITY_CLASSIFICATION ( '', '', #59 ) ;
#33 = COORDINATED_UNIVERSAL_TIME_OFFSET ( 5, 0, .BEHIND. ) ;
#34 = DIRECTION ( 'NONE',  ( 0.000000000000000000, 0.000000000000000000, 1.000000000000000000 ) ) ;
#35 = APPROVAL ( #141, 'UNSPECIFIED' ) ;
#36 = ORGANIZATION ( 'UNSPECIFIED', 'UNSPECIFIED', '' ) ;
#37 = CARTESIAN_POINT ( 'NONE',  ( 0.000000000000000000, 0.000000000000000000, 0.000000000000000000 ) ) ;
#38 = APPROVAL ( #57, 'UNSPECIFIED' ) ;
#39 = LOCAL_TIME ( 9, 37, 48.00000000000000000, #150 ) ;
#40 = ORIENTED_EDGE ( 'NONE', *, *, #23, .T. ) ;
#41 = MECHANICAL_CONTEXT ( 'NONE', #15, 'mechanical' ) ;
#42 = FACE_OUTER_BOUND ( 'NONE', #117, .T. ) ;
#43 = DATE_AND_TIME ( #71, #62 ) ;
#44 = APPROVAL_ROLE ( '' ) ;
#45 = APPROVAL_STATUS ( 'not_yet_approved' ) ;
#46 = AXIS2_PLACEMENT_3D ( 'NONE', #124, #162, #100 ) ;
#47 = PERSON_AND_ORGANIZATION ( #27, #36 ) ;
#48 = LINE ( 'NONE', #110, #81 ) ;
#49 = CALENDAR_DATE ( 2021, 20, 4 ) ;
#50 = ORIENTED_EDGE ( 'NONE', *, *, #11, .F. ) ;
#51 = PERSON_AND_ORGANIZATION ( #27, #36 ) ;
#52 = VERTEX_POINT ( 'NONE', #108 ) ;
#53 = DIRECTION ( 'NONE',  ( 0.000000000000000000, 0.000000000000000000, 1.000000000000000000 ) ) ;
#54 = DATE_AND_TIME ( #96, #157 ) ;
#55 = CC_DESIGN_APPROVAL ( #38, ( #32 ) ) ;
#56 = PERSON_AND_ORGANIZATION_ROLE ( 'classification_officer' ) ;
#57 = APPROVAL_STATUS ( 'not_yet_approved' ) ;
#58 = AXIS2_PLACEMENT_3D ( 'NONE', #136, #69, #130 ) ;
#59 = SECURITY_CLASSIFICATION_LEVEL ( 'unclassified' ) ;
#60 = VERTEX_POINT ( 'NONE', #107 ) ;
#61 = APPROVAL_PERSON_ORGANIZATION ( #116, #128, #165 ) ;
#62 = LOCAL_TIME ( 9, 37, 48.00000000000000000, #145 ) ;
#63 = CIRCLE ( 'NONE', #82, 6.250000000000001776 ) ;
#64 = AXIS2_PLACEMENT_3D ( 'NONE', #149, #137, #10 ) ;
#65 = PERSON_AND_ORGANIZATION ( #27, #36 ) ;
#66 = CARTESIAN_POINT ( 'NONE',  ( 0.000000000000000000, 0.000000000000000000, 1.100000000000000089 ) ) ;
#67 = CARTESIAN_POINT ( 'NONE',  ( 6.250000000000001776, 7.654042494670959579E-16, 1.100000000000000089 ) ) ;
#68 = DESIGN_CONTEXT ( 'detailed design', #174, 'design' ) ;
#69 = DIRECTION ( 'NONE',  ( 0.000000000000000000, 0.000000000000000000, 1.000000000000000000 ) ) ;
#70 = CC_DESIGN_SECURITY_CLASSIFICATION ( #32, ( #80 ) ) ;
#71 = CALENDAR_DATE ( 2021, 20, 4 ) ;
#72 = EDGE_LOOP ( 'NONE', ( #50, #26, #75, #151 ) ) ;
#73 = DIRECTION ( 'NONE',  ( -0.000000000000000000, -0.000000000000000000, -1.000000000000000000 ) ) ;
#74 = PRODUCT_DEFINITION_SHAPE ( 'NONE', 'NONE',  #109 ) ;
#75 = ORIENTED_EDGE ( 'NONE', *, *, #31, .T. ) ;
#76 = CC_DESIGN_PERSON_AND_ORGANIZATION_ASSIGNMENT ( #103, #166, ( #146 ) ) ;
#77 = ADVANCED_BREP_SHAPE_REPRESENTATION ( 'Web Model 17256_17256', ( #147, #58 ), #144 ) ;
#78 = PERSON_AND_ORGANIZATION_ROLE ( 'creator' ) ;
#79 =( NAMED_UNIT ( * ) PLANE_ANGLE_UNIT ( ) SI_UNIT ( $, .RADIAN. ) );
#80 = PRODUCT_DEFINITION_FORMATION_WITH_SPECIFIED_SOURCE ( 'ANY', '', #146, .NOT_KNOWN. ) ;
#81 = VECTOR ( 'NONE', #159, 1000.000000000000000 ) ;
#82 = AXIS2_PLACEMENT_3D ( 'NONE', #66, #34, #93 ) ;
#83 = APPROVAL_DATE_TIME ( #43, #128 ) ;
#84 = ORIENTED_EDGE ( 'NONE', *, *, #175, .T. ) ;
#85 = FACE_OUTER_BOUND ( 'NONE', #72, .T. ) ;
#86 = CARTESIAN_POINT ( 'NONE',  ( 0.000000000000000000, 0.000000000000000000, 1.100000000000000089 ) ) ;
#87 = AXIS2_PLACEMENT_3D ( 'NONE', #9, #172, #171 ) ;
#88 = ORIENTED_EDGE ( 'NONE', *, *, #17, .F. ) ;
#89 = DATE_TIME_ROLE ( 'creation_date' ) ;
#90 = CIRCLE ( 'NONE', #95, 6.250000000000001776 ) ;
#91 = CC_DESIGN_PERSON_AND_ORGANIZATION_ASSIGNMENT ( #167, #14, ( #109 ) ) ;
#92 = CC_DESIGN_PERSON_AND_ORGANIZATION_ASSIGNMENT ( #131, #56, ( #32 ) ) ;
#93 = DIRECTION ( 'NONE',  ( 1.000000000000000000, 0.000000000000000000, 0.000000000000000000 ) ) ;
#94 = DATE_AND_TIME ( #3, #39 ) ;
#95 = AXIS2_PLACEMENT_3D ( 'NONE', #122, #112, #133 ) ;
#96 = CALENDAR_DATE ( 2021, 20, 4 ) ;
#97 = PLANE ( 'NONE',  #168 ) ;
#98 = UNCERTAINTY_MEASURE_WITH_UNIT (LENGTH_MEASURE( 1.000000000000000082E-05 ), #104, 'distance_accuracy_value', 'NONE');
#99 = DATE_AND_TIME ( #30, #121 ) ;
#100 = DIRECTION ( 'NONE',  ( -1.000000000000000000, 0.000000000000000000, 0.000000000000000000 ) ) ;
#101 = CC_DESIGN_PERSON_AND_ORGANIZATION_ASSIGNMENT ( #47, #143, ( #80 ) ) ;
#102 = ORIENTED_EDGE ( 'NONE', *, *, #139, .F. ) ;
#103 = PERSON_AND_ORGANIZATION ( #27, #36 ) ;
#104 =( LENGTH_UNIT ( ) NAMED_UNIT ( * ) SI_UNIT ( .MILLI., .METRE. ) );
#105 = ORIENTED_EDGE ( 'NONE', *, *, #175, .F. ) ;
#106 = ORIENTED_EDGE ( 'NONE', *, *, #31, .F. ) ;
#107 = CARTESIAN_POINT ( 'NONE',  ( -6.250000000000001776, 0.000000000000000000, 1.100000000000000089 ) ) ;
#108 = CARTESIAN_POINT ( 'NONE',  ( -6.250000000000001776, 0.000000000000000000, 0.000000000000000000 ) ) ;
#109 = PRODUCT_DEFINITION ( 'UNKNOWN', '', #80, #68 ) ;
#110 = CARTESIAN_POINT ( 'NONE',  ( -6.250000000000001776, 0.000000000000000000, 1.100000000000000089 ) ) ;
#111 = LOCAL_TIME ( 9, 37, 48.00000000000000000, #33 ) ;
#112 = DIRECTION ( 'NONE',  ( 0.000000000000000000, 0.000000000000000000, 1.000000000000000000 ) ) ;
#113 = APPROVAL_ROLE ( '' ) ;
#114 = CIRCLE ( 'NONE', #87, 6.250000000000001776 ) ;
#115 = CC_DESIGN_PERSON_AND_ORGANIZATION_ASSIGNMENT ( #65, #78, ( #80 ) ) ;
#116 = PERSON_AND_ORGANIZATION ( #27, #36 ) ;
#117 = EDGE_LOOP ( 'NONE', ( #88, #102 ) ) ;
#118 = FACE_OUTER_BOUND ( 'NONE', #153, .T. ) ;
#119 = DIRECTION ( 'NONE',  ( 1.000000000000000000, 0.000000000000000000, -0.000000000000000000 ) ) ;
#120 = DIRECTION ( 'NONE',  ( 0.000000000000000000, 0.000000000000000000, 1.000000000000000000 ) ) ;
#121 = LOCAL_TIME ( 9, 37, 48.00000000000000000, #21 ) ;
#122 = CARTESIAN_POINT ( 'NONE',  ( 0.000000000000000000, 0.000000000000000000, 1.100000000000000089 ) ) ;
#123 = ADVANCED_FACE ( 'NONE', ( #118 ), #155, .T. ) ;
#124 = CARTESIAN_POINT ( 'NONE',  ( 0.000000000000000000, 0.000000000000000000, 1.100000000000000089 ) ) ;
#125 = ADVANCED_FACE ( 'NONE', ( #42 ), #97, .F. ) ;
#126 = AXIS2_PLACEMENT_3D ( 'NONE', #37, #53, #12 ) ;
#127 = ADVANCED_FACE ( 'NONE', ( #85 ), #158, .T. ) ;
#128 = APPROVAL ( #45, 'UNSPECIFIED' ) ;
#129 = PERSON_AND_ORGANIZATION ( #27, #36 ) ;
#130 = DIRECTION ( 'NONE',  ( 1.000000000000000000, 0.000000000000000000, 0.000000000000000000 ) ) ;
#131 = PERSON_AND_ORGANIZATION ( #27, #36 ) ;
#132 = EDGE_LOOP ( 'NONE', ( #40, #84 ) ) ;
#133 = DIRECTION ( 'NONE',  ( 1.000000000000000000, 0.000000000000000000, 0.000000000000000000 ) ) ;
#134 = APPROVAL_PERSON_ORGANIZATION ( #129, #38, #113 ) ;
#135 = CC_DESIGN_DATE_AND_TIME_ASSIGNMENT ( #99, #89, ( #109 ) ) ;
#136 = CARTESIAN_POINT ( 'NONE',  ( 0.000000000000000000, 0.000000000000000000, 0.000000000000000000 ) ) ;
#137 = DIRECTION ( 'NONE',  ( 0.000000000000000000, 0.000000000000000000, 1.000000000000000000 ) ) ;
#138 = VECTOR ( 'NONE', #13, 1000.000000000000000 ) ;
#139 = EDGE_CURVE ( 'NONE', #173, #52, #22, .T. ) ;
#140 = DATE_AND_TIME ( #49, #111 ) ;
#141 = APPROVAL_STATUS ( 'not_yet_approved' ) ;
#142 = DATE_TIME_ROLE ( 'classification_date' ) ;
#143 = PERSON_AND_ORGANIZATION_ROLE ( 'design_supplier' ) ;
#144 =( GEOMETRIC_REPRESENTATION_CONTEXT ( 3 ) GLOBAL_UNCERTAINTY_ASSIGNED_CONTEXT ( ( #98 ) ) GLOBAL_UNIT_ASSIGNED_CONTEXT ( ( #104, #79, #20 ) ) REPRESENTATION_CONTEXT ( 'NONE', 'WORKASPACE' ) );
#145 = COORDINATED_UNIVERSAL_TIME_OFFSET ( 5, 0, .BEHIND. ) ;
#146 = PRODUCT ( 'Web Model 17256_17256', 'Web Model 17256_17256', '', ( #41 ) ) ;
#147 = MANIFOLD_SOLID_BREP ( 'Boss-Extrude1', #5 ) ;
#148 = DIRECTION ( 'NONE',  ( -1.000000000000000000, 0.000000000000000000, 0.000000000000000000 ) ) ;
#149 = CARTESIAN_POINT ( 'NONE',  ( 0.000000000000000000, 0.000000000000000000, 1.100000000000000089 ) ) ;
#150 = COORDINATED_UNIVERSAL_TIME_OFFSET ( 5, 0, .BEHIND. ) ;
#151 = ORIENTED_EDGE ( 'NONE', *, *, #17, .T. ) ;
#152 = PLANE ( 'NONE',  #64 ) ;
#153 = EDGE_LOOP ( 'NONE', ( #105, #163, #18, #106 ) ) ;
#154 = CC_DESIGN_APPROVAL ( #128, ( #109 ) ) ;
#155 = CYLINDRICAL_SURFACE ( 'NONE', #46, 6.250000000000001776 ) ;
#156 = CC_DESIGN_DATE_AND_TIME_ASSIGNMENT ( #94, #142, ( #32 ) ) ;
#157 = LOCAL_TIME ( 9, 37, 48.00000000000000000, #6 ) ;
#158 = CYLINDRICAL_SURFACE ( 'NONE', #25, 6.250000000000001776 ) ;
#159 = DIRECTION ( 'NONE',  ( -0.000000000000000000, -0.000000000000000000, -1.000000000000000000 ) ) ;
#160 = CARTESIAN_POINT ( 'NONE',  ( 6.250000000000001776, 7.654042494670959579E-16, 1.100000000000000089 ) ) ;
#161 = ADVANCED_FACE ( 'NONE', ( #7 ), #152, .T. ) ;
#162 = DIRECTION ( 'NONE',  ( -0.000000000000000000, -0.000000000000000000, -1.000000000000000000 ) ) ;
#163 = ORIENTED_EDGE ( 'NONE', *, *, #11, .T. ) ;
#164 = APPROVAL_DATE_TIME ( #54, #35 ) ;
#165 = APPROVAL_ROLE ( '' ) ;
#166 = PERSON_AND_ORGANIZATION_ROLE ( 'design_owner' ) ;
#167 = PERSON_AND_ORGANIZATION ( #27, #36 ) ;
#168 = AXIS2_PLACEMENT_3D ( 'NONE', #8, #120, #119 ) ;
#169 = LINE ( 'NONE', #67, #138 ) ;
#170 = APPROVAL_DATE_TIME ( #140, #38 ) ;
#171 = DIRECTION ( 'NONE',  ( 1.000000000000000000, 0.000000000000000000, 0.000000000000000000 ) ) ;
#172 = DIRECTION ( 'NONE',  ( 0.000000000000000000, 0.000000000000000000, 1.000000000000000000 ) ) ;
#173 = VERTEX_POINT ( 'NONE', #28 ) ;
#174 = APPLICATION_CONTEXT ( 'configuration controlled 3d designs of mechanical parts and assemblies' ) ;
#175 = EDGE_CURVE ( 'NONE', #1, #60, #63, .T. ) ;
ENDSEC;
END-ISO-10303-21;
