ISO-10303-21;
HEADER;
FILE_DESCRIPTION (( 'STEP AP203' ),
    '1' );
FILE_NAME ('Web Model 46460_18718.step',
    '2021-07-13T18:48:40',
    ( '' ),
    ( '' ),
    'SwSTEP 2.0',
    'SolidWorks 2018',
    '' );
FILE_SCHEMA (( 'CONFIG_CONTROL_DESIGN' ));
ENDSEC;

DATA;
#1 = CARTESIAN_POINT ( 'NONE',  ( -0.7500000000000000000, 0.000000000000000000, 18.99999999999999645 ) ) ;
#2 = CIRCLE ( 'NONE', #40, 18.99999999999999645 ) ;
#3 = CARTESIAN_POINT ( 'NONE',  ( -0.7500000000000000000, 2.326828918379970576E-15, -18.99999999999999645 ) ) ;
#4 = APPROVAL_DATE_TIME ( #57, #78 ) ;
#5 = PERSON_AND_ORGANIZATION_ROLE ( 'design_owner' ) ;
#6 = PERSON ( 'UNSPECIFIED', 'UNSPECIFIED', 'UNSPECIFIED', ('UNSPECIFIED'), ('UNSPECIFIED'), ('UNSPECIFIED') ) ;
#7 =( LENGTH_UNIT ( ) NAMED_UNIT ( * ) SI_UNIT ( .MILLI., .METRE. ) );
#8 = FACE_OUTER_BOUND ( 'NONE', #24, .T. ) ;
#9 = DATE_AND_TIME ( #144, #71 ) ;
#10 = AXIS2_PLACEMENT_3D ( 'NONE', #19, #37, #50 ) ;
#11 = EDGE_LOOP ( 'NONE', ( #148, #90 ) ) ;
#12 = SECURITY_CLASSIFICATION_LEVEL ( 'unclassified' ) ;
#13 = ORIENTED_EDGE ( 'NONE', *, *, #91, .T. ) ;
#14 = CC_DESIGN_DATE_AND_TIME_ASSIGNMENT ( #52, #58, ( #104 ) ) ;
#15 = DIRECTION ( 'NONE',  ( 0.000000000000000000, 0.000000000000000000, -1.000000000000000000 ) ) ;
#16 = COORDINATED_UNIVERSAL_TIME_OFFSET ( 5, 0, .BEHIND. ) ;
#17 = APPLICATION_PROTOCOL_DEFINITION ( 'international standard', 'config_control_design', 1994, #109 ) ;
#18 = APPLICATION_PROTOCOL_DEFINITION ( 'international standard', 'config_control_design', 1994, #170 ) ;
#19 = CARTESIAN_POINT ( 'NONE',  ( 0.000000000000000000, 0.000000000000000000, 0.000000000000000000 ) ) ;
#20 = AXIS2_PLACEMENT_3D ( 'NONE', #81, #157, #159 ) ;
#21 = VERTEX_POINT ( 'NONE', #46 ) ;
#22 = PERSON_AND_ORGANIZATION ( #6, #67 ) ;
#23 = ADVANCED_FACE ( 'NONE', ( #93 ), #120, .T. ) ;
#24 = EDGE_LOOP ( 'NONE', ( #87, #126, #89, #13 ) ) ;
#25 = CC_DESIGN_SECURITY_CLASSIFICATION ( #104, ( #73 ) ) ;
#26 =( GEOMETRIC_REPRESENTATION_CONTEXT ( 3 ) GLOBAL_UNCERTAINTY_ASSIGNED_CONTEXT ( ( #69 ) ) GLOBAL_UNIT_ASSIGNED_CONTEXT ( ( #7, #139, #98 ) ) REPRESENTATION_CONTEXT ( 'NONE', 'WORKASPACE' ) );
#27 = PERSON_AND_ORGANIZATION_ROLE ( 'creator' ) ;
#28 = ADVANCED_FACE ( 'NONE', ( #8 ), #43, .T. ) ;
#29 = CARTESIAN_POINT ( 'NONE',  ( 0.7500000000000000000, 0.000000000000000000, 0.000000000000000000 ) ) ;
#30 = EDGE_CURVE ( 'NONE', #111, #124, #76, .T. ) ;
#31 = DIRECTION ( 'NONE',  ( 0.000000000000000000, 0.000000000000000000, 1.000000000000000000 ) ) ;
#32 = LOCAL_TIME ( 14, 48, 40.00000000000000000, #56 ) ;
#33 = APPROVAL ( #125, 'UNSPECIFIED' ) ;
#34 = CARTESIAN_POINT ( 'NONE',  ( 0.7500000000000000000, 2.326828918379970576E-15, -18.99999999999999645 ) ) ;
#35 = CARTESIAN_POINT ( 'NONE',  ( 0.7500000000000000000, 0.000000000000000000, 0.000000000000000000 ) ) ;
#36 = APPROVAL_ROLE ( '' ) ;
#37 = DIRECTION ( 'NONE',  ( 0.000000000000000000, 0.000000000000000000, 1.000000000000000000 ) ) ;
#38 = ORIENTED_EDGE ( 'NONE', *, *, #61, .F. ) ;
#39 = COORDINATED_UNIVERSAL_TIME_OFFSET ( 5, 0, .BEHIND. ) ;
#40 = AXIS2_PLACEMENT_3D ( 'NONE', #29, #44, #15 ) ;
#41 = APPROVAL_PERSON_ORGANIZATION ( #137, #33, #36 ) ;
#42 = CALENDAR_DATE ( 2021, 13, 7 ) ;
#43 = CYLINDRICAL_SURFACE ( 'NONE', #80, 18.99999999999999645 ) ;
#44 = DIRECTION ( 'NONE',  ( 1.000000000000000000, 0.000000000000000000, 0.000000000000000000 ) ) ;
#45 = PERSON_AND_ORGANIZATION ( #6, #67 ) ;
#46 = CARTESIAN_POINT ( 'NONE',  ( 0.7500000000000000000, 0.000000000000000000, 18.99999999999999645 ) ) ;
#47 = VECTOR ( 'NONE', #142, 1000.000000000000000 ) ;
#48 = DIRECTION ( 'NONE',  ( 0.000000000000000000, 0.000000000000000000, -1.000000000000000000 ) ) ;
#49 = DIRECTION ( 'NONE',  ( 0.000000000000000000, 0.000000000000000000, -1.000000000000000000 ) ) ;
#50 = DIRECTION ( 'NONE',  ( 1.000000000000000000, 0.000000000000000000, 0.000000000000000000 ) ) ;
#51 = CC_DESIGN_PERSON_AND_ORGANIZATION_ASSIGNMENT ( #133, #27, ( #129 ) ) ;
#52 = DATE_AND_TIME ( #95, #32 ) ;
#53 = CIRCLE ( 'NONE', #20, 18.99999999999999645 ) ;
#54 = MANIFOLD_SOLID_BREP ( 'Boss-Extrude1', #140 ) ;
#55 = DATE_TIME_ROLE ( 'creation_date' ) ;
#56 = COORDINATED_UNIVERSAL_TIME_OFFSET ( 5, 0, .BEHIND. ) ;
#57 = DATE_AND_TIME ( #153, #83 ) ;
#58 = DATE_TIME_ROLE ( 'classification_date' ) ;
#59 = APPROVAL ( #166, 'UNSPECIFIED' ) ;
#60 = DIRECTION ( 'NONE',  ( -1.000000000000000000, -0.000000000000000000, -0.000000000000000000 ) ) ;
#61 = EDGE_CURVE ( 'NONE', #111, #21, #2, .T. ) ;
#62 = ORIENTED_EDGE ( 'NONE', *, *, #130, .F. ) ;
#63 = AXIS2_PLACEMENT_3D ( 'NONE', #65, #156, #94 ) ;
#64 = PERSON_AND_ORGANIZATION ( #6, #67 ) ;
#65 = CARTESIAN_POINT ( 'NONE',  ( -0.7500000000000000000, 0.000000000000000000, 0.000000000000000000 ) ) ;
#66 = CARTESIAN_POINT ( 'NONE',  ( 0.7500000000000000000, 0.000000000000000000, 18.99999999999999645 ) ) ;
#67 = ORGANIZATION ( 'UNSPECIFIED', 'UNSPECIFIED', '' ) ;
#68 = DIRECTION ( 'NONE',  ( 1.000000000000000000, 0.000000000000000000, 0.000000000000000000 ) ) ;
#69 = UNCERTAINTY_MEASURE_WITH_UNIT (LENGTH_MEASURE( 1.000000000000000082E-05 ), #7, 'distance_accuracy_value', 'NONE');
#70 = CC_DESIGN_PERSON_AND_ORGANIZATION_ASSIGNMENT ( #72, #118, ( #73 ) ) ;
#71 = LOCAL_TIME ( 14, 48, 40.00000000000000000, #114 ) ;
#72 = PERSON_AND_ORGANIZATION ( #6, #67 ) ;
#73 = PRODUCT_DEFINITION_FORMATION_WITH_SPECIFIED_SOURCE ( 'ANY', '', #160, .NOT_KNOWN. ) ;
#74 = APPROVAL_ROLE ( '' ) ;
#75 = VERTEX_POINT ( 'NONE', #1 ) ;
#76 = LINE ( 'NONE', #34, #47 ) ;
#77 = DATE_AND_TIME ( #42, #121 ) ;
#78 = APPROVAL ( #151, 'UNSPECIFIED' ) ;
#79 = CIRCLE ( 'NONE', #102, 18.99999999999999645 ) ;
#80 = AXIS2_PLACEMENT_3D ( 'NONE', #35, #169, #31 ) ;
#81 = CARTESIAN_POINT ( 'NONE',  ( 0.7500000000000000000, 0.000000000000000000, 0.000000000000000000 ) ) ;
#82 = VECTOR ( 'NONE', #145, 1000.000000000000000 ) ;
#83 = LOCAL_TIME ( 14, 48, 40.00000000000000000, #152 ) ;
#84 = PRODUCT_DEFINITION_SHAPE ( 'NONE', 'NONE',  #129 ) ;
#85 = ORIENTED_EDGE ( 'NONE', *, *, #162, .F. ) ;
#86 = APPROVAL_PERSON_ORGANIZATION ( #45, #78, #74 ) ;
#87 = ORIENTED_EDGE ( 'NONE', *, *, #30, .F. ) ;
#88 = CC_DESIGN_PERSON_AND_ORGANIZATION_ASSIGNMENT ( #22, #5, ( #160 ) ) ;
#89 = ORIENTED_EDGE ( 'NONE', *, *, #162, .T. ) ;
#90 = ORIENTED_EDGE ( 'NONE', *, *, #61, .T. ) ;
#91 = EDGE_CURVE ( 'NONE', #75, #124, #79, .T. ) ;
#92 = AXIS2_PLACEMENT_3D ( 'NONE', #138, #68, #49 ) ;
#93 = FACE_OUTER_BOUND ( 'NONE', #11, .T. ) ;
#94 = DIRECTION ( 'NONE',  ( 0.000000000000000000, 0.000000000000000000, -1.000000000000000000 ) ) ;
#95 = CALENDAR_DATE ( 2021, 13, 7 ) ;
#96 = CARTESIAN_POINT ( 'NONE',  ( 0.7500000000000000000, 0.000000000000000000, 0.000000000000000000 ) ) ;
#97 = LOCAL_TIME ( 14, 48, 40.00000000000000000, #16 ) ;
#98 =( NAMED_UNIT ( * ) SI_UNIT ( $, .STERADIAN. ) SOLID_ANGLE_UNIT ( ) );
#99 = ORIENTED_EDGE ( 'NONE', *, *, #30, .T. ) ;
#100 = ADVANCED_FACE ( 'NONE', ( #119 ), #116, .T. ) ;
#101 = APPROVAL_DATE_TIME ( #77, #59 ) ;
#102 = AXIS2_PLACEMENT_3D ( 'NONE', #136, #155, #48 ) ;
#103 = PERSON_AND_ORGANIZATION_ROLE ( 'creator' ) ;
#104 = SECURITY_CLASSIFICATION ( '', '', #12 ) ;
#105 = CARTESIAN_POINT ( 'NONE',  ( 0.7500000000000000000, 0.000000000000000000, 0.000000000000000000 ) ) ;
#106 = CARTESIAN_POINT ( 'NONE',  ( 0.7500000000000000000, 2.326828918379970576E-15, -18.99999999999999645 ) ) ;
#107 = CC_DESIGN_APPROVAL ( #78, ( #104 ) ) ;
#108 = CC_DESIGN_PERSON_AND_ORGANIZATION_ASSIGNMENT ( #135, #132, ( #104 ) ) ;
#109 = APPLICATION_CONTEXT ( 'configuration controlled 3d designs of mechanical parts and assemblies' ) ;
#110 = CALENDAR_DATE ( 2021, 13, 7 ) ;
#111 = VERTEX_POINT ( 'NONE', #106 ) ;
#112 = APPROVAL_PERSON_ORGANIZATION ( #173, #59, #134 ) ;
#113 = CC_DESIGN_APPROVAL ( #59, ( #73 ) ) ;
#114 = COORDINATED_UNIVERSAL_TIME_OFFSET ( 5, 0, .BEHIND. ) ;
#115 = ADVANCED_FACE ( 'NONE', ( #161 ), #168, .F. ) ;
#116 = CYLINDRICAL_SURFACE ( 'NONE', #117, 18.99999999999999645 ) ;
#117 = AXIS2_PLACEMENT_3D ( 'NONE', #96, #60, #146 ) ;
#118 = PERSON_AND_ORGANIZATION_ROLE ( 'design_supplier' ) ;
#119 = FACE_OUTER_BOUND ( 'NONE', #131, .T. ) ;
#120 = PLANE ( 'NONE',  #123 ) ;
#121 = LOCAL_TIME ( 14, 48, 40.00000000000000000, #39 ) ;
#122 = DIRECTION ( 'NONE',  ( 0.000000000000000000, 0.000000000000000000, -1.000000000000000000 ) ) ;
#123 = AXIS2_PLACEMENT_3D ( 'NONE', #105, #143, #122 ) ;
#124 = VERTEX_POINT ( 'NONE', #3 ) ;
#125 = APPROVAL_STATUS ( 'not_yet_approved' ) ;
#126 = ORIENTED_EDGE ( 'NONE', *, *, #154, .F. ) ;
#127 = DESIGN_CONTEXT ( 'detailed design', #109, 'design' ) ;
#128 = ORIENTED_EDGE ( 'NONE', *, *, #130, .T. ) ;
#129 = PRODUCT_DEFINITION ( 'UNKNOWN', '', #73, #127 ) ;
#130 = EDGE_CURVE ( 'NONE', #124, #75, #175, .T. ) ;
#131 = EDGE_LOOP ( 'NONE', ( #38, #99, #128, #85 ) ) ;
#132 = PERSON_AND_ORGANIZATION_ROLE ( 'classification_officer' ) ;
#133 = PERSON_AND_ORGANIZATION ( #6, #67 ) ;
#134 = APPROVAL_ROLE ( '' ) ;
#135 = PERSON_AND_ORGANIZATION ( #6, #67 ) ;
#136 = CARTESIAN_POINT ( 'NONE',  ( -0.7500000000000000000, 0.000000000000000000, 0.000000000000000000 ) ) ;
#137 = PERSON_AND_ORGANIZATION ( #6, #67 ) ;
#138 = CARTESIAN_POINT ( 'NONE',  ( -0.7500000000000000000, 0.000000000000000000, 0.000000000000000000 ) ) ;
#139 =( NAMED_UNIT ( * ) PLANE_ANGLE_UNIT ( ) SI_UNIT ( $, .RADIAN. ) );
#140 = CLOSED_SHELL ( 'NONE', ( #100, #28, #23, #115 ) ) ;
#141 = CC_DESIGN_DATE_AND_TIME_ASSIGNMENT ( #9, #55, ( #129 ) ) ;
#142 = DIRECTION ( 'NONE',  ( -1.000000000000000000, -0.000000000000000000, -0.000000000000000000 ) ) ;
#143 = DIRECTION ( 'NONE',  ( 1.000000000000000000, 0.000000000000000000, 0.000000000000000000 ) ) ;
#144 = CALENDAR_DATE ( 2021, 13, 7 ) ;
#145 = DIRECTION ( 'NONE',  ( -1.000000000000000000, -0.000000000000000000, -0.000000000000000000 ) ) ;
#146 = DIRECTION ( 'NONE',  ( 0.000000000000000000, 0.000000000000000000, 1.000000000000000000 ) ) ;
#147 = ADVANCED_BREP_SHAPE_REPRESENTATION ( 'Web Model 46460_18718', ( #54, #10 ), #26 ) ;
#148 = ORIENTED_EDGE ( 'NONE', *, *, #154, .T. ) ;
#149 = SHAPE_DEFINITION_REPRESENTATION ( #84, #147 ) ;
#150 = LINE ( 'NONE', #66, #82 ) ;
#151 = APPROVAL_STATUS ( 'not_yet_approved' ) ;
#152 = COORDINATED_UNIVERSAL_TIME_OFFSET ( 5, 0, .BEHIND. ) ;
#153 = CALENDAR_DATE ( 2021, 13, 7 ) ;
#154 = EDGE_CURVE ( 'NONE', #21, #111, #53, .T. ) ;
#155 = DIRECTION ( 'NONE',  ( 1.000000000000000000, 0.000000000000000000, 0.000000000000000000 ) ) ;
#156 = DIRECTION ( 'NONE',  ( 1.000000000000000000, 0.000000000000000000, 0.000000000000000000 ) ) ;
#157 = DIRECTION ( 'NONE',  ( 1.000000000000000000, 0.000000000000000000, 0.000000000000000000 ) ) ;
#158 = PRODUCT_RELATED_PRODUCT_CATEGORY ( 'detail', '', ( #160 ) ) ;
#159 = DIRECTION ( 'NONE',  ( 0.000000000000000000, 0.000000000000000000, -1.000000000000000000 ) ) ;
#160 = PRODUCT ( 'Web Model 46460_18718', 'Web Model 46460_18718', '', ( #171 ) ) ;
#161 = FACE_OUTER_BOUND ( 'NONE', #165, .T. ) ;
#162 = EDGE_CURVE ( 'NONE', #21, #75, #150, .T. ) ;
#163 = APPROVAL_DATE_TIME ( #164, #33 ) ;
#164 = DATE_AND_TIME ( #110, #97 ) ;
#165 = EDGE_LOOP ( 'NONE', ( #167, #62 ) ) ;
#166 = APPROVAL_STATUS ( 'not_yet_approved' ) ;
#167 = ORIENTED_EDGE ( 'NONE', *, *, #91, .F. ) ;
#168 = PLANE ( 'NONE',  #63 ) ;
#169 = DIRECTION ( 'NONE',  ( -1.000000000000000000, -0.000000000000000000, -0.000000000000000000 ) ) ;
#170 = APPLICATION_CONTEXT ( 'configuration controlled 3d designs of mechanical parts and assemblies' ) ;
#171 = MECHANICAL_CONTEXT ( 'NONE', #170, 'mechanical' ) ;
#172 = CC_DESIGN_APPROVAL ( #33, ( #129 ) ) ;
#173 = PERSON_AND_ORGANIZATION ( #6, #67 ) ;
#174 = CC_DESIGN_PERSON_AND_ORGANIZATION_ASSIGNMENT ( #64, #103, ( #73 ) ) ;
#175 = CIRCLE ( 'NONE', #92, 18.99999999999999645 ) ;
ENDSEC;
END-ISO-10303-21;
