ISO-10303-21;
HEADER;
FILE_DESCRIPTION (( 'STEP AP203' ),
    '1' );
FILE_NAME ('Web Model 85291_85292.step',
    '2017-05-01T20:07:47',
    ( '' ),
    ( '' ),
    'SwSTEP 2.0',
    'SolidWorks 2016',
    '' );
FILE_SCHEMA (( 'CONFIG_CONTROL_DESIGN' ));
ENDSEC;

DATA;
#1 = LOCAL_TIME ( 16, 7, 47.00000000000000000, #139 ) ;
#2 = ORIENTED_EDGE ( 'NONE', *, *, #202, .T. ) ;
#3 = EDGE_LOOP ( 'NONE', ( #183, #98, #7, #61 ) ) ;
#4 = PLANE ( 'NONE',  #189 ) ;
#5 = COORDINATED_UNIVERSAL_TIME_OFFSET ( 5, 0, .BEHIND. ) ;
#6 = PERSON_AND_ORGANIZATION_ROLE ( 'classification_officer' ) ;
#7 = ORIENTED_EDGE ( 'NONE', *, *, #85, .F. ) ;
#8 = ORIENTED_EDGE ( 'NONE', *, *, #133, .F. ) ;
#9 = ORIENTED_EDGE ( 'NONE', *, *, #213, .F. ) ;
#10 = LINE ( 'NONE', #212, #102 ) ;
#11 = VERTEX_POINT ( 'NONE', #69 ) ;
#12 = CC_DESIGN_PERSON_AND_ORGANIZATION_ASSIGNMENT ( #219, #27, ( #180 ) ) ;
#13 = ORIENTED_EDGE ( 'NONE', *, *, #92, .T. ) ;
#14 = VECTOR ( 'NONE', #118, 1000.000000000000000 ) ;
#15 = DIRECTION ( 'NONE',  ( -1.387778780781445700E-016, 1.000000000000000000, -0.0000000000000000000 ) ) ;
#16 = LINE ( 'NONE', #210, #152 ) ;
#17 = PLANE ( 'NONE',  #121 ) ;
#18 = EDGE_CURVE ( 'NONE', #113, #11, #10, .T. ) ;
#19 = DIRECTION ( 'NONE',  ( 1.387778780781445700E-016, -1.000000000000000000, 0.0000000000000000000 ) ) ;
#20 = ORIENTED_EDGE ( 'NONE', *, *, #202, .F. ) ;
#21 = CALENDAR_DATE ( 2017, 1, 5 ) ;
#22 = CC_DESIGN_PERSON_AND_ORGANIZATION_ASSIGNMENT ( #123, #65, ( #197 ) ) ;
#23 = ADVANCED_FACE ( 'NONE', ( #148 ), #4, .F. ) ;
#24 = LOCAL_TIME ( 16, 7, 47.00000000000000000, #160 ) ;
#25 = ORIENTED_EDGE ( 'NONE', *, *, #133, .T. ) ;
#26 = SECURITY_CLASSIFICATION_LEVEL ( 'unclassified' ) ;
#27 = PERSON_AND_ORGANIZATION_ROLE ( 'creator' ) ;
#28 = ORIENTED_EDGE ( 'NONE', *, *, #85, .T. ) ;
#29 = LINE ( 'NONE', #216, #115 ) ;
#30 = DIRECTION ( 'NONE',  ( 1.000000000000000000, 0.0000000000000000000, 0.0000000000000000000 ) ) ;
#31 = VECTOR ( 'NONE', #15, 1000.000000000000000 ) ;
#32 = DIRECTION ( 'NONE',  ( 1.387778780781445700E-016, -1.000000000000000000, 0.0000000000000000000 ) ) ;
#33 = VECTOR ( 'NONE', #195, 1000.000000000000000 ) ;
#34 = DATE_AND_TIME ( #179, #93 ) ;
#35 = ORIENTED_EDGE ( 'NONE', *, *, #81, .T. ) ;
#36 = CARTESIAN_POINT ( 'NONE',  ( -12.49999999999999800, -12.50000000000000200, -1.000000000000000000 ) ) ;
#37 = APPROVAL_DATE_TIME ( #181, #209 ) ;
#38 = CLOSED_SHELL ( 'NONE', ( #159, #23, #58, #142, #138, #220 ) ) ;
#39 = AXIS2_PLACEMENT_3D ( 'NONE', #48, #192, #30 ) ;
#40 = DATE_AND_TIME ( #185, #97 ) ;
#41 = PERSON_AND_ORGANIZATION_ROLE ( 'design_supplier' ) ;
#42 = EDGE_LOOP ( 'NONE', ( #8, #224, #163, #64 ) ) ;
#43 = APPROVAL_ROLE ( '' ) ;
#44 = DIRECTION ( 'NONE',  ( -0.0000000000000000000, -0.0000000000000000000, -1.000000000000000000 ) ) ;
#45 = FACE_OUTER_BOUND ( 'NONE', #141, .T. ) ;
#46 = CC_DESIGN_PERSON_AND_ORGANIZATION_ASSIGNMENT ( #199, #128, ( #166 ) ) ;
#47 = EDGE_LOOP ( 'NONE', ( #25, #127, #20, #167 ) ) ;
#48 = CARTESIAN_POINT ( 'NONE',  ( 0.0000000000000000000, 0.0000000000000000000, 0.0000000000000000000 ) ) ;
#49 = LINE ( 'NONE', #155, #194 ) ;
#50 =( GEOMETRIC_REPRESENTATION_CONTEXT ( 3 ) GLOBAL_UNCERTAINTY_ASSIGNED_CONTEXT ( ( #173 ) ) GLOBAL_UNIT_ASSIGNED_CONTEXT ( ( #198, #73, #233 ) ) REPRESENTATION_CONTEXT ( 'NONE', 'WORKASPACE' ) );
#51 = APPLICATION_PROTOCOL_DEFINITION ( 'international standard', 'config_control_design', 1994, #229 ) ;
#52 = DIRECTION ( 'NONE',  ( -0.0000000000000000000, -0.0000000000000000000, -1.000000000000000000 ) ) ;
#53 = SHAPE_DEFINITION_REPRESENTATION ( #158, #149 ) ;
#54 = DIRECTION ( 'NONE',  ( 0.0000000000000000000, 1.000000000000000000, 0.0000000000000000000 ) ) ;
#55 = ORIENTED_EDGE ( 'NONE', *, *, #226, .F. ) ;
#56 = CARTESIAN_POINT ( 'NONE',  ( -12.50000000000000200, 12.49999999999999600, -1.000000000000000000 ) ) ;
#57 = PERSON_AND_ORGANIZATION ( #188, #117 ) ;
#58 = ADVANCED_FACE ( 'NONE', ( #45 ), #88, .F. ) ;
#59 = APPROVAL_PERSON_ORGANIZATION ( #201, #209, #83 ) ;
#60 = VERTEX_POINT ( 'NONE', #182 ) ;
#61 = ORIENTED_EDGE ( 'NONE', *, *, #70, .T. ) ;
#62 = PERSON_AND_ORGANIZATION ( #188, #117 ) ;
#63 = EDGE_LOOP ( 'NONE', ( #13, #203, #9, #187 ) ) ;
#64 = ORIENTED_EDGE ( 'NONE', *, *, #92, .F. ) ;
#65 = PERSON_AND_ORGANIZATION_ROLE ( 'creator' ) ;
#66 = VECTOR ( 'NONE', #231, 1000.000000000000000 ) ;
#67 = VECTOR ( 'NONE', #44, 1000.000000000000000 ) ;
#68 = AXIS2_PLACEMENT_3D ( 'NONE', #112, #130, #146 ) ;
#69 = CARTESIAN_POINT ( 'NONE',  ( 12.49999999999999800, 12.49999999999999600, -1.000000000000000000 ) ) ;
#70 = EDGE_CURVE ( 'NONE', #111, #84, #191, .T. ) ;
#71 = PLANE ( 'NONE',  #108 ) ;
#72 = VECTOR ( 'NONE', #208, 1000.000000000000000 ) ;
#73 =( NAMED_UNIT ( * ) PLANE_ANGLE_UNIT ( ) SI_UNIT ( $, .RADIAN. ) );
#74 = MANIFOLD_SOLID_BREP ( 'Boss-Extrude1', #38 ) ;
#75 = APPROVAL ( #86, 'UNSPECIFIED' ) ;
#76 = CARTESIAN_POINT ( 'NONE',  ( 12.49999999999999800, 12.49999999999999600, 1.000000000000000000 ) ) ;
#77 = CARTESIAN_POINT ( 'NONE',  ( -12.49999999999999800, -12.50000000000000200, 1.000000000000000000 ) ) ;
#78 = COORDINATED_UNIVERSAL_TIME_OFFSET ( 5, 0, .BEHIND. ) ;
#79 = DIRECTION ( 'NONE',  ( 0.0000000000000000000, -0.0000000000000000000, -1.000000000000000000 ) ) ;
#80 = PERSON_AND_ORGANIZATION ( #188, #117 ) ;
#81 = EDGE_CURVE ( 'NONE', #95, #60, #129, .T. ) ;
#82 = ORIENTED_EDGE ( 'NONE', *, *, #70, .F. ) ;
#83 = APPROVAL_ROLE ( '' ) ;
#84 = VERTEX_POINT ( 'NONE', #36 ) ;
#85 = EDGE_CURVE ( 'NONE', #111, #125, #29, .T. ) ;
#86 = APPROVAL_STATUS ( 'not_yet_approved' ) ;
#87 = VECTOR ( 'NONE', #162, 1000.000000000000000 ) ;
#88 = PLANE ( 'NONE',  #135 ) ;
#89 = LINE ( 'NONE', #76, #31 ) ;
#90 = CARTESIAN_POINT ( 'NONE',  ( 12.49999999999999800, 12.49999999999999600, -1.000000000000000000 ) ) ;
#91 = DIRECTION ( 'NONE',  ( 0.0000000000000000000, -0.0000000000000000000, 1.000000000000000000 ) ) ;
#92 = EDGE_CURVE ( 'NONE', #11, #60, #172, .T. ) ;
#93 = LOCAL_TIME ( 16, 7, 47.00000000000000000, #237 ) ;
#94 = CALENDAR_DATE ( 2017, 1, 5 ) ;
#95 = VERTEX_POINT ( 'NONE', #235 ) ;
#96 = CC_DESIGN_PERSON_AND_ORGANIZATION_ASSIGNMENT ( #80, #6, ( #178 ) ) ;
#97 = LOCAL_TIME ( 16, 7, 47.00000000000000000, #5 ) ;
#98 = ORIENTED_EDGE ( 'NONE', *, *, #217, .F. ) ;
#99 = APPROVAL_STATUS ( 'not_yet_approved' ) ;
#100 = APPLICATION_PROTOCOL_DEFINITION ( 'international standard', 'config_control_design', 1994, #114 ) ;
#101 = ORIENTED_EDGE ( 'NONE', *, *, #175, .T. ) ;
#102 = VECTOR ( 'NONE', #52, 1000.000000000000000 ) ;
#103 = FACE_OUTER_BOUND ( 'NONE', #3, .T. ) ;
#104 = DIRECTION ( 'NONE',  ( 1.000000000000000000, 0.0000000000000000000, 0.0000000000000000000 ) ) ;
#105 = CARTESIAN_POINT ( 'NONE',  ( -12.50000000000000200, 12.49999999999999600, 1.000000000000000000 ) ) ;
#106 = FACE_OUTER_BOUND ( 'NONE', #42, .T. ) ;
#107 = DIRECTION ( 'NONE',  ( -1.387778780781445700E-016, 1.000000000000000000, 0.0000000000000000000 ) ) ;
#108 = AXIS2_PLACEMENT_3D ( 'NONE', #134, #176, #196 ) ;
#109 = DATE_AND_TIME ( #21, #156 ) ;
#110 = CALENDAR_DATE ( 2017, 1, 5 ) ;
#111 = VERTEX_POINT ( 'NONE', #214 ) ;
#112 = CARTESIAN_POINT ( 'NONE',  ( 0.0000000000000000000, 0.0000000000000000000, -1.000000000000000000 ) ) ;
#113 = VERTEX_POINT ( 'NONE', #232 ) ;
#114 = APPLICATION_CONTEXT ( 'configuration controlled 3d designs of mechanical parts and assemblies' ) ;
#115 = VECTOR ( 'NONE', #104, 1000.000000000000000 ) ;
#116 = CARTESIAN_POINT ( 'NONE',  ( 12.50000000000000200, -12.50000000000000200, 1.000000000000000000 ) ) ;
#117 = ORGANIZATION ( 'UNSPECIFIED', 'UNSPECIFIED', '' ) ;
#118 = DIRECTION ( 'NONE',  ( -1.387778780781445700E-016, 1.000000000000000000, -0.0000000000000000000 ) ) ;
#119 = PLANE ( 'NONE',  #186 ) ;
#120 = CARTESIAN_POINT ( 'NONE',  ( 12.50000000000000200, -12.50000000000000200, 1.000000000000000000 ) ) ;
#121 = AXIS2_PLACEMENT_3D ( 'NONE', #153, #54, #91 ) ;
#122 = APPROVAL_DATE_TIME ( #34, #75 ) ;
#123 = PERSON_AND_ORGANIZATION ( #188, #117 ) ;
#124 = CC_DESIGN_DATE_AND_TIME_ASSIGNMENT ( #204, #206, ( #178 ) ) ;
#125 = VERTEX_POINT ( 'NONE', #116 ) ;
#126 = APPROVAL_DATE_TIME ( #40, #150 ) ;
#127 = ORIENTED_EDGE ( 'NONE', *, *, #18, .F. ) ;
#128 = PERSON_AND_ORGANIZATION_ROLE ( 'design_owner' ) ;
#129 = LINE ( 'NONE', #105, #87 ) ;
#130 = DIRECTION ( 'NONE',  ( -0.0000000000000000000, 0.0000000000000000000, 1.000000000000000000 ) ) ;
#131 = LINE ( 'NONE', #56, #228 ) ;
#132 = CARTESIAN_POINT ( 'NONE',  ( -12.50000000000000200, 12.49999999999999600, -1.000000000000000000 ) ) ;
#133 = EDGE_CURVE ( 'NONE', #207, #11, #211, .T. ) ;
#134 = CARTESIAN_POINT ( 'NONE',  ( 0.0000000000000000000, 0.0000000000000000000, 1.000000000000000000 ) ) ;
#135 = AXIS2_PLACEMENT_3D ( 'NONE', #168, #227, #107 ) ;
#136 = CARTESIAN_POINT ( 'NONE',  ( -12.50000000000000200, 12.49999999999999600, 1.000000000000000000 ) ) ;
#137 = APPROVAL_PERSON_ORGANIZATION ( #57, #75, #43 ) ;
#138 = ADVANCED_FACE ( 'NONE', ( #151 ), #71, .T. ) ;
#139 = COORDINATED_UNIVERSAL_TIME_OFFSET ( 5, 0, .BEHIND. ) ;
#140 = PRODUCT_RELATED_PRODUCT_CATEGORY ( 'detail', '', ( #166 ) ) ;
#141 = EDGE_LOOP ( 'NONE', ( #101, #82, #55, #35 ) ) ;
#142 = ADVANCED_FACE ( 'NONE', ( #103 ), #17, .F. ) ;
#143 = APPROVAL_PERSON_ORGANIZATION ( #62, #150, #164 ) ;
#144 = EDGE_LOOP ( 'NONE', ( #2, #223, #205, #28 ) ) ;
#145 = CARTESIAN_POINT ( 'NONE',  ( -12.50000000000000200, 12.49999999999999600, 1.000000000000000000 ) ) ;
#146 = DIRECTION ( 'NONE',  ( 1.000000000000000000, 0.0000000000000000000, 0.0000000000000000000 ) ) ;
#147 = EDGE_CURVE ( 'NONE', #84, #207, #49, .T. ) ;
#148 = FACE_OUTER_BOUND ( 'NONE', #63, .T. ) ;
#149 = ADVANCED_BREP_SHAPE_REPRESENTATION ( 'Web Model 85291_85292', ( #74, #39 ), #50 ) ;
#150 = APPROVAL ( #184, 'UNSPECIFIED' ) ;
#151 = FACE_OUTER_BOUND ( 'NONE', #144, .T. ) ;
#152 = VECTOR ( 'NONE', #165, 1000.000000000000000 ) ;
#153 = CARTESIAN_POINT ( 'NONE',  ( -12.49999999999999800, -12.50000000000000200, 1.000000000000000000 ) ) ;
#154 = CC_DESIGN_SECURITY_CLASSIFICATION ( #178, ( #197 ) ) ;
#155 = CARTESIAN_POINT ( 'NONE',  ( -12.49999999999999800, -12.50000000000000200, -1.000000000000000000 ) ) ;
#156 = LOCAL_TIME ( 16, 7, 47.00000000000000000, #78 ) ;
#157 = DIRECTION ( 'NONE',  ( 0.0000000000000000000, -1.000000000000000000, 0.0000000000000000000 ) ) ;
#158 = PRODUCT_DEFINITION_SHAPE ( 'NONE', 'NONE',  #180 ) ;
#159 = ADVANCED_FACE ( 'NONE', ( #230 ), #119, .F. ) ;
#160 = COORDINATED_UNIVERSAL_TIME_OFFSET ( 5, 0, .BEHIND. ) ;
#161 = CC_DESIGN_PERSON_AND_ORGANIZATION_ASSIGNMENT ( #222, #41, ( #197 ) ) ;
#162 = DIRECTION ( 'NONE',  ( -0.0000000000000000000, -0.0000000000000000000, -1.000000000000000000 ) ) ;
#163 = ORIENTED_EDGE ( 'NONE', *, *, #175, .F. ) ;
#164 = APPROVAL_ROLE ( '' ) ;
#165 = DIRECTION ( 'NONE',  ( 1.387778780781445700E-016, -1.000000000000000000, 0.0000000000000000000 ) ) ;
#166 = PRODUCT ( 'Web Model 85291_85292', 'Web Model 85291_85292', '', ( #171 ) ) ;
#167 = ORIENTED_EDGE ( 'NONE', *, *, #217, .T. ) ;
#168 = CARTESIAN_POINT ( 'NONE',  ( -12.50000000000000200, 12.49999999999999600, 1.000000000000000000 ) ) ;
#169 = CARTESIAN_POINT ( 'NONE',  ( 12.50000000000000200, -12.50000000000000200, -1.000000000000000000 ) ) ;
#170 = CC_DESIGN_APPROVAL ( #150, ( #178 ) ) ;
#171 = MECHANICAL_CONTEXT ( 'NONE', #229, 'mechanical' ) ;
#172 = LINE ( 'NONE', #132, #33 ) ;
#173 = UNCERTAINTY_MEASURE_WITH_UNIT (LENGTH_MEASURE( 1.000000000000000100E-005 ), #198, 'distance_accuracy_value', 'NONE');
#174 = LINE ( 'NONE', #120, #67 ) ;
#175 = EDGE_CURVE ( 'NONE', #60, #84, #131, .T. ) ;
#176 = DIRECTION ( 'NONE',  ( -0.0000000000000000000, 0.0000000000000000000, 1.000000000000000000 ) ) ;
#177 = DIRECTION ( 'NONE',  ( 1.000000000000000000, 0.0000000000000000000, 0.0000000000000000000 ) ) ;
#178 = SECURITY_CLASSIFICATION ( '', '', #26 ) ;
#179 = CALENDAR_DATE ( 2017, 1, 5 ) ;
#180 = PRODUCT_DEFINITION ( 'UNKNOWN', '', #197, #200 ) ;
#181 = DATE_AND_TIME ( #94, #1 ) ;
#182 = CARTESIAN_POINT ( 'NONE',  ( -12.50000000000000200, 12.49999999999999600, -1.000000000000000000 ) ) ;
#183 = ORIENTED_EDGE ( 'NONE', *, *, #147, .T. ) ;
#184 = APPROVAL_STATUS ( 'not_yet_approved' ) ;
#185 = CALENDAR_DATE ( 2017, 1, 5 ) ;
#186 = AXIS2_PLACEMENT_3D ( 'NONE', #218, #236, #19 ) ;
#187 = ORIENTED_EDGE ( 'NONE', *, *, #18, .T. ) ;
#188 = PERSON ( 'UNSPECIFIED', 'UNSPECIFIED', 'UNSPECIFIED', ('UNSPECIFIED'), ('UNSPECIFIED'), ('UNSPECIFIED') ) ;
#189 = AXIS2_PLACEMENT_3D ( 'NONE', #145, #157, #79 ) ;
#190 = PLANE ( 'NONE',  #68 ) ;
#191 = LINE ( 'NONE', #77, #66 ) ;
#192 = DIRECTION ( 'NONE',  ( 0.0000000000000000000, 0.0000000000000000000, 1.000000000000000000 ) ) ;
#193 = CC_DESIGN_APPROVAL ( #209, ( #197 ) ) ;
#194 = VECTOR ( 'NONE', #177, 1000.000000000000000 ) ;
#195 = DIRECTION ( 'NONE',  ( -1.000000000000000000, -0.0000000000000000000, -0.0000000000000000000 ) ) ;
#196 = DIRECTION ( 'NONE',  ( 1.000000000000000000, 0.0000000000000000000, 0.0000000000000000000 ) ) ;
#197 = PRODUCT_DEFINITION_FORMATION_WITH_SPECIFIED_SOURCE ( 'ANY', '', #166, .NOT_KNOWN. ) ;
#198 =( LENGTH_UNIT ( ) NAMED_UNIT ( * ) SI_UNIT ( .MILLI., .METRE. ) );
#199 = PERSON_AND_ORGANIZATION ( #188, #117 ) ;
#200 = DESIGN_CONTEXT ( 'detailed design', #114, 'design' ) ;
#201 = PERSON_AND_ORGANIZATION ( #188, #117 ) ;
#202 = EDGE_CURVE ( 'NONE', #125, #113, #89, .T. ) ;
#203 = ORIENTED_EDGE ( 'NONE', *, *, #81, .F. ) ;
#204 = DATE_AND_TIME ( #110, #24 ) ;
#205 = ORIENTED_EDGE ( 'NONE', *, *, #226, .T. ) ;
#206 = DATE_TIME_ROLE ( 'classification_date' ) ;
#207 = VERTEX_POINT ( 'NONE', #169 ) ;
#208 = DIRECTION ( 'NONE',  ( -1.000000000000000000, -0.0000000000000000000, -0.0000000000000000000 ) ) ;
#209 = APPROVAL ( #99, 'UNSPECIFIED' ) ;
#210 = CARTESIAN_POINT ( 'NONE',  ( -12.50000000000000200, 12.49999999999999600, 1.000000000000000000 ) ) ;
#211 = LINE ( 'NONE', #90, #14 ) ;
#212 = CARTESIAN_POINT ( 'NONE',  ( 12.49999999999999800, 12.49999999999999600, 1.000000000000000000 ) ) ;
#213 = EDGE_CURVE ( 'NONE', #113, #95, #215, .T. ) ;
#214 = CARTESIAN_POINT ( 'NONE',  ( -12.49999999999999800, -12.50000000000000200, 1.000000000000000000 ) ) ;
#215 = LINE ( 'NONE', #136, #72 ) ;
#216 = CARTESIAN_POINT ( 'NONE',  ( -12.49999999999999800, -12.50000000000000200, 1.000000000000000000 ) ) ;
#217 = EDGE_CURVE ( 'NONE', #125, #207, #174, .T. ) ;
#218 = CARTESIAN_POINT ( 'NONE',  ( 12.49999999999999800, 12.49999999999999600, 1.000000000000000000 ) ) ;
#219 = PERSON_AND_ORGANIZATION ( #188, #117 ) ;
#220 = ADVANCED_FACE ( 'NONE', ( #106 ), #190, .F. ) ;
#221 = CC_DESIGN_DATE_AND_TIME_ASSIGNMENT ( #109, #225, ( #180 ) ) ;
#222 = PERSON_AND_ORGANIZATION ( #188, #117 ) ;
#223 = ORIENTED_EDGE ( 'NONE', *, *, #213, .T. ) ;
#224 = ORIENTED_EDGE ( 'NONE', *, *, #147, .F. ) ;
#225 = DATE_TIME_ROLE ( 'creation_date' ) ;
#226 = EDGE_CURVE ( 'NONE', #95, #111, #16, .T. ) ;
#227 = DIRECTION ( 'NONE',  ( 1.000000000000000000, 1.387778780781445700E-016, -0.0000000000000000000 ) ) ;
#228 = VECTOR ( 'NONE', #32, 1000.000000000000000 ) ;
#229 = APPLICATION_CONTEXT ( 'configuration controlled 3d designs of mechanical parts and assemblies' ) ;
#230 = FACE_OUTER_BOUND ( 'NONE', #47, .T. ) ;
#231 = DIRECTION ( 'NONE',  ( -0.0000000000000000000, -0.0000000000000000000, -1.000000000000000000 ) ) ;
#232 = CARTESIAN_POINT ( 'NONE',  ( 12.49999999999999800, 12.49999999999999600, 1.000000000000000000 ) ) ;
#233 =( NAMED_UNIT ( * ) SI_UNIT ( $, .STERADIAN. ) SOLID_ANGLE_UNIT ( ) );
#234 = CC_DESIGN_APPROVAL ( #75, ( #180 ) ) ;
#235 = CARTESIAN_POINT ( 'NONE',  ( -12.50000000000000200, 12.49999999999999600, 1.000000000000000000 ) ) ;
#236 = DIRECTION ( 'NONE',  ( -1.000000000000000000, -1.387778780781445700E-016, 0.0000000000000000000 ) ) ;
#237 = COORDINATED_UNIVERSAL_TIME_OFFSET ( 5, 0, .BEHIND. ) ;
ENDSEC;
END-ISO-10303-21;
