ISO-10303-21;
HEADER;
FILE_DESCRIPTION (( 'STEP AP203' ),
    '1' );
FILE_NAME ('20229-E0W.STEP',
    '2009-09-14T20:12:44',
    ( 'Admin' ),
    ( 'Thorlabs, Inc.' ),
    'SwSTEP 2.0',
    'SolidWorks 2007',
    '' );
FILE_SCHEMA (( 'CONFIG_CONTROL_DESIGN' ));
ENDSEC;

DATA;
#1 = ADVANCED_BREP_SHAPE_REPRESENTATION ( '20229-E0W', ( #58, #189 ), #3 ) ;
#2 = UNCERTAINTY_MEASURE_WITH_UNIT (LENGTH_MEASURE( 1.000000000000000100E-005 ), #9, 'distance_accuracy_value', 'NONE');
#3 =( GEOMETRIC_REPRESENTATION_CONTEXT ( 3 ) GLOBAL_UNCERTAINTY_ASSIGNED_CONTEXT ( ( #2 ) ) GLOBAL_UNIT_ASSIGNED_CONTEXT ( ( #9, #75, #74 ) ) REPRESENTATION_CONTEXT ( 'NONE', 'WORKASPACE' ) );
#4 = ORIENTED_EDGE ( 'NONE', *, *, #5, .T. ) ;
#5 = EDGE_CURVE ( 'NONE', #10, #11, #31, .T. ) ;
#6 = ORIENTED_EDGE ( 'NONE', *, *, #7, .T. ) ;
#7 = EDGE_CURVE ( 'NONE', #11, #15, #32, .T. ) ;
#8 = CARTESIAN_POINT ( 'NONE',  ( 0.0000000000000000000, 3.799188529658298400E-016, -0.06825021379310924900 ) ) ;
#9 =( LENGTH_UNIT ( ) NAMED_UNIT ( * ) SI_UNIT ( .MILLI., .METRE. ) );
#10 = VERTEX_POINT ( 'NONE', #107 ) ;
#11 = VERTEX_POINT ( 'NONE', #106 ) ;
#12 = ORIENTED_EDGE ( 'NONE', *, *, #13, .F. ) ;
#13 = EDGE_CURVE ( 'NONE', #16, #15, #105, .T. ) ;
#14 = ORIENTED_EDGE ( 'NONE', *, *, #19, .F. ) ;
#15 = VERTEX_POINT ( 'NONE', #100 ) ;
#16 = VERTEX_POINT ( 'NONE', #99 ) ;
#17 = ORIENTED_EDGE ( 'NONE', *, *, #19, .T. ) ;
#18 = ORIENTED_EDGE ( 'NONE', *, *, #56, .T. ) ;
#19 = EDGE_CURVE ( 'NONE', #10, #16, #117, .T. ) ;
#20 = ADVANCED_FACE ( 'NONE', ( #113 ), #111, .T. ) ;
#21 = EDGE_LOOP ( 'NONE', ( #22, #34, #36 ) ) ;
#22 = ORIENTED_EDGE ( 'NONE', *, *, #23, .F. ) ;
#23 = EDGE_CURVE ( 'NONE', #33, #10, #140, .T. ) ;
#24 = ADVANCED_FACE ( 'NONE', ( #141 ), #133, .T. ) ;
#25 = ORIENTED_EDGE ( 'NONE', *, *, #123, .F. ) ;
#26 = ORIENTED_EDGE ( 'NONE', *, *, #52, .F. ) ;
#27 = CLOSED_SHELL ( 'NONE', ( #59, #20, #37, #60, #24, #54 ) ) ;
#28 = DIRECTION ( 'NONE',  ( 0.0000000000000000000, -1.000000000000000000, -1.835460370743176800E-016 ) ) ;
#29 = DIRECTION ( 'NONE',  ( 0.0000000000000000000, -1.836909530733566100E-016, 1.000000000000000000 ) ) ;
#30 = AXIS2_PLACEMENT_3D ( 'NONE', #8, #29, #28 ) ;
#31 = CIRCLE ( 'NONE', #30, 12.69999999999999900 ) ;
#32 = LINE ( 'NONE', #110, #109 ) ;
#33 = VERTEX_POINT ( 'NONE', #134 ) ;
#34 = ORIENTED_EDGE ( 'NONE', *, *, #35, .T. ) ;
#35 = EDGE_CURVE ( 'NONE', #33, #11, #128, .T. ) ;
#36 = ORIENTED_EDGE ( 'NONE', *, *, #5, .F. ) ;
#37 = ADVANCED_FACE ( 'NONE', ( #129 ), #73, .F. ) ;
#38 = ORIENTED_EDGE ( 'NONE', *, *, #7, .F. ) ;
#39 = DIRECTION ( 'NONE',  ( 0.0000000000000000000, -1.000000000000000000, -1.835460370743176800E-016 ) ) ;
#40 = DIRECTION ( 'NONE',  ( 0.0000000000000000000, -1.836909530733566100E-016, 1.000000000000000000 ) ) ;
#41 = CARTESIAN_POINT ( 'NONE',  ( 0.0000000000000000000, 3.799188529658298400E-016, -0.06825021379310924900 ) ) ;
#42 = AXIS2_PLACEMENT_3D ( 'NONE', #41, #40, #39 ) ;
#43 = CIRCLE ( 'NONE', #42, 12.69999999999999900 ) ;
#44 = FACE_OUTER_BOUND ( 'NONE', #57, .T. ) ;
#45 = DIRECTION ( 'NONE',  ( 0.0000000000000000000, -1.000000000000000000, -1.707404996040164500E-016 ) ) ;
#46 = DIRECTION ( 'NONE',  ( 0.0000000000000000000, -1.836909530733566100E-016, 1.000000000000000000 ) ) ;
#47 = AXIS2_PLACEMENT_3D ( 'NONE', #49, #46, #45 ) ;
#48 = CYLINDRICAL_SURFACE ( 'NONE', #47, 12.69999999999999900 ) ;
#49 = CARTESIAN_POINT ( 'NONE',  ( 0.0000000000000000000, 0.0000000000000000000, 2.000000000000000000 ) ) ;
#50 = ORIENTED_EDGE ( 'NONE', *, *, #13, .T. ) ;
#51 = ORIENTED_EDGE ( 'NONE', *, *, #35, .F. ) ;
#52 = EDGE_CURVE ( 'NONE', #15, #16, #67, .T. ) ;
#53 = EDGE_LOOP ( 'NONE', ( #38, #18, #17, #26 ) ) ;
#54 = ADVANCED_FACE ( 'NONE', ( #68 ), #48, .T. ) ;
#55 = ORIENTED_EDGE ( 'NONE', *, *, #52, .T. ) ;
#56 = EDGE_CURVE ( 'NONE', #11, #10, #43, .T. ) ;
#57 = EDGE_LOOP ( 'NONE', ( #4, #6, #12, #14 ) ) ;
#58 = MANIFOLD_SOLID_BREP ( 'NONE', #27 ) ;
#59 = ADVANCED_FACE ( 'NONE', ( #44 ), #97, .T. ) ;
#60 = ADVANCED_FACE ( 'NONE', ( #96 ), #91, .F. ) ;
#61 = EDGE_LOOP ( 'NONE', ( #25, #145, #55 ) ) ;
#62 = EDGE_LOOP ( 'NONE', ( #51, #98, #146 ) ) ;
#63 = DIRECTION ( 'NONE',  ( 0.0000000000000000000, -1.000000000000000000, -2.048885995248197200E-016 ) ) ;
#64 = DIRECTION ( 'NONE',  ( 0.0000000000000000000, -1.836909530733566100E-016, 1.000000000000000000 ) ) ;
#65 = CARTESIAN_POINT ( 'NONE',  ( 0.0000000000000000000, -4.583995798188394600E-016, 4.495493502261805200 ) ) ;
#66 = AXIS2_PLACEMENT_3D ( 'NONE', #65, #64, #63 ) ;
#67 = CIRCLE ( 'NONE', #66, 12.70000000000000100 ) ;
#68 = FACE_OUTER_BOUND ( 'NONE', #53, .T. ) ;
#69 = DIRECTION ( 'NONE',  ( 0.0000000000000000000, 1.000000000000000000, 2.067362025952577700E-016 ) ) ;
#70 = DIRECTION ( 'NONE',  ( -1.000000000000000000, 0.0000000000000000000, 0.0000000000000000000 ) ) ;
#71 = CARTESIAN_POINT ( 'NONE',  ( 0.0000000000000000000, 0.0000000000000000000, 35.56399999999998600 ) ) ;
#72 = AXIS2_PLACEMENT_3D ( 'NONE', #71, #70, #69 ) ;
#73 = SPHERICAL_SURFACE ( 'NONE', #72, 33.56399999999998600 ) ;
#74 =( NAMED_UNIT ( * ) SI_UNIT ( $, .STERADIAN. ) SOLID_ANGLE_UNIT ( ) );
#75 =( NAMED_UNIT ( * ) PLANE_ANGLE_UNIT ( ) SI_UNIT ( $, .RADIAN. ) );
#76 = DIRECTION ( 'NONE',  ( -1.224606353822377000E-016, -1.000000000000000000, 0.0000000000000000000 ) ) ;
#77 = DIRECTION ( 'NONE',  ( -1.000000000000000000, 1.224606353822377300E-016, 2.249491082733206400E-032 ) ) ;
#78 = CARTESIAN_POINT ( 'NONE',  ( 0.0000000000000000000, 0.0000000000000000000, 35.56399999999998600 ) ) ;
#79 = AXIS2_PLACEMENT_3D ( 'NONE', #78, #77, #76 ) ;
#80 = CIRCLE ( 'NONE', #79, 33.56399999999998600 ) ;
#81 = CARTESIAN_POINT ( 'NONE',  ( 0.0000000000000000000, 8.220537531938849400E-015, 2.000000000000001800 ) ) ;
#82 = DIRECTION ( 'NONE',  ( 0.0000000000000000000, 0.0000000000000000000, -1.000000000000000000 ) ) ;
#83 = DIRECTION ( 'NONE',  ( 1.000000000000000000, 0.0000000000000000000, 0.0000000000000000000 ) ) ;
#84 = AXIS2_PLACEMENT_3D ( 'NONE', #90, #83, #82 ) ;
#85 = CIRCLE ( 'NONE', #84, 33.56399999999998600 ) ;
#86 = DIRECTION ( 'NONE',  ( 0.0000000000000000000, 1.000000000000000000, 2.067362025952577700E-016 ) ) ;
#87 = DIRECTION ( 'NONE',  ( -1.000000000000000000, 0.0000000000000000000, 0.0000000000000000000 ) ) ;
#88 = CARTESIAN_POINT ( 'NONE',  ( 0.0000000000000000000, 0.0000000000000000000, 35.56399999999998600 ) ) ;
#89 = AXIS2_PLACEMENT_3D ( 'NONE', #88, #87, #86 ) ;
#90 = CARTESIAN_POINT ( 'NONE',  ( 0.0000000000000000000, 0.0000000000000000000, 35.56399999999998600 ) ) ;
#91 = SPHERICAL_SURFACE ( 'NONE', #89, 33.56399999999998600 ) ;
#92 = DIRECTION ( 'NONE',  ( 0.0000000000000000000, -1.000000000000000000, -1.707404996040164500E-016 ) ) ;
#93 = DIRECTION ( 'NONE',  ( 0.0000000000000000000, -1.836909530733566100E-016, 1.000000000000000000 ) ) ;
#94 = CARTESIAN_POINT ( 'NONE',  ( 0.0000000000000000000, 0.0000000000000000000, 2.000000000000000000 ) ) ;
#95 = AXIS2_PLACEMENT_3D ( 'NONE', #94, #93, #92 ) ;
#96 = FACE_OUTER_BOUND ( 'NONE', #61, .T. ) ;
#97 = CYLINDRICAL_SURFACE ( 'NONE', #95, 12.69999999999999900 ) ;
#98 = ORIENTED_EDGE ( 'NONE', *, *, #23, .T. ) ;
#99 = CARTESIAN_POINT ( 'NONE',  ( -1.555250069354417900E-015, -12.69999999999998200, 4.495493502261803400 ) ) ;
#100 = CARTESIAN_POINT ( 'NONE',  ( 0.0000000000000000000, 12.69999999999998900, 4.495493502261806100 ) ) ;
#101 = DIRECTION ( 'NONE',  ( 0.0000000000000000000, -1.000000000000000000, -2.048885995248197200E-016 ) ) ;
#102 = DIRECTION ( 'NONE',  ( 0.0000000000000000000, -1.836909530733566100E-016, 1.000000000000000000 ) ) ;
#103 = CARTESIAN_POINT ( 'NONE',  ( 0.0000000000000000000, -4.583995798188394600E-016, 4.495493502261805200 ) ) ;
#104 = AXIS2_PLACEMENT_3D ( 'NONE', #103, #102, #101 ) ;
#105 = CIRCLE ( 'NONE', #104, 12.70000000000000100 ) ;
#106 = CARTESIAN_POINT ( 'NONE',  ( 1.555250069354418300E-015, 12.70000000000000100, -0.06825021379310353100 ) ) ;
#107 = CARTESIAN_POINT ( 'NONE',  ( 0.0000000000000000000, -12.69999999999999400, -0.06825021379310586300 ) ) ;
#108 = DIRECTION ( 'NONE',  ( 0.0000000000000000000, -1.836909530733566100E-016, 1.000000000000000000 ) ) ;
#109 = VECTOR ( 'NONE', #108, 1000.000000000000000 ) ;
#110 = CARTESIAN_POINT ( 'NONE',  ( 1.555250069354419100E-015, 12.69999999999999900, 2.000000000000002200 ) ) ;
#111 = SPHERICAL_SURFACE ( 'NONE', #112, 42.71300000000000100 ) ;
#112 = AXIS2_PLACEMENT_3D ( 'NONE', #144, #143, #142 ) ;
#113 = FACE_OUTER_BOUND ( 'NONE', #21, .T. ) ;
#114 = DIRECTION ( 'NONE',  ( 0.0000000000000000000, -1.836909530733566100E-016, 1.000000000000000000 ) ) ;
#115 = VECTOR ( 'NONE', #114, 1000.000000000000000 ) ;
#116 = CARTESIAN_POINT ( 'NONE',  ( 0.0000000000000000000, -12.69999999999999900, 1.999999999999997800 ) ) ;
#117 = LINE ( 'NONE', #116, #115 ) ;
#118 = EDGE_LOOP ( 'NONE', ( #119, #122, #50 ) ) ;
#119 = ORIENTED_EDGE ( 'NONE', *, *, #120, .F. ) ;
#120 = EDGE_CURVE ( 'NONE', #121, #15, #85, .T. ) ;
#121 = VERTEX_POINT ( 'NONE', #81 ) ;
#122 = ORIENTED_EDGE ( 'NONE', *, *, #123, .T. ) ;
#123 = EDGE_CURVE ( 'NONE', #121, #16, #80, .T. ) ;
#124 = DIRECTION ( 'NONE',  ( 1.224606353822377300E-016, 1.000000000000000000, 0.0000000000000000000 ) ) ;
#125 = DIRECTION ( 'NONE',  ( 1.000000000000000000, -1.224606353822377300E-016, -2.249491082733206400E-032 ) ) ;
#126 = CARTESIAN_POINT ( 'NONE',  ( 0.0000000000000000000, 0.0000000000000000000, 40.71300000000000100 ) ) ;
#127 = AXIS2_PLACEMENT_3D ( 'NONE', #126, #125, #124 ) ;
#128 = CIRCLE ( 'NONE', #127, 42.71300000000000100 ) ;
#129 = FACE_OUTER_BOUND ( 'NONE', #118, .T. ) ;
#130 = DIRECTION ( 'NONE',  ( 0.0000000000000000000, -1.000000000000000000, -1.624539110787635600E-016 ) ) ;
#131 = DIRECTION ( 'NONE',  ( 1.000000000000000000, 0.0000000000000000000, 0.0000000000000000000 ) ) ;
#132 = AXIS2_PLACEMENT_3D ( 'NONE', #135, #131, #130 ) ;
#133 = SPHERICAL_SURFACE ( 'NONE', #132, 42.71300000000000100 ) ;
#134 = CARTESIAN_POINT ( 'NONE',  ( 0.0000000000000000000, 5.230661119081520800E-015, -2.000000000000001800 ) ) ;
#135 = CARTESIAN_POINT ( 'NONE',  ( 0.0000000000000000000, 0.0000000000000000000, 40.71300000000000100 ) ) ;
#136 = DIRECTION ( 'NONE',  ( 0.0000000000000000000, 0.0000000000000000000, 1.000000000000000000 ) ) ;
#137 = DIRECTION ( 'NONE',  ( -1.000000000000000000, 0.0000000000000000000, 0.0000000000000000000 ) ) ;
#138 = CARTESIAN_POINT ( 'NONE',  ( 0.0000000000000000000, 0.0000000000000000000, 40.71300000000000100 ) ) ;
#139 = AXIS2_PLACEMENT_3D ( 'NONE', #138, #137, #136 ) ;
#140 = CIRCLE ( 'NONE', #139, 42.71300000000000100 ) ;
#141 = FACE_OUTER_BOUND ( 'NONE', #62, .T. ) ;
#142 = DIRECTION ( 'NONE',  ( 0.0000000000000000000, -1.000000000000000000, -1.624539110787635600E-016 ) ) ;
#143 = DIRECTION ( 'NONE',  ( 1.000000000000000000, 0.0000000000000000000, 0.0000000000000000000 ) ) ;
#144 = CARTESIAN_POINT ( 'NONE',  ( 0.0000000000000000000, 0.0000000000000000000, 40.71300000000000100 ) ) ;
#145 = ORIENTED_EDGE ( 'NONE', *, *, #120, .T. ) ;
#146 = ORIENTED_EDGE ( 'NONE', *, *, #56, .F. ) ;
#147 = APPLICATION_CONTEXT ( 'configuration controlled 3d designs of mechanical parts and assemblies' ) ;
#148 = CC_DESIGN_PERSON_AND_ORGANIZATION_ASSIGNMENT ( #187, #149, ( #197 ) ) ;
#149 = PERSON_AND_ORGANIZATION_ROLE ( 'design_owner' ) ;
#150 = CARTESIAN_POINT ( 'NONE',  ( 0.0000000000000000000, 0.0000000000000000000, 0.0000000000000000000 ) ) ;
#151 = PRODUCT_DEFINITION_SHAPE ( 'NONE', 'NONE',  #206 ) ;
#152 = APPROVAL_ROLE ( '' ) ;
#153 = APPROVAL ( #154, 'UNSPECIFIED' ) ;
#154 = APPROVAL_STATUS ( 'not_yet_approved' ) ;
#155 = PERSON_AND_ORGANIZATION ( #226, #188 ) ;
#156 = CC_DESIGN_DATE_AND_TIME_ASSIGNMENT ( #158, #157, ( #213 ) ) ;
#157 = DATE_TIME_ROLE ( 'classification_date' ) ;
#158 = DATE_AND_TIME ( #159, #160 ) ;
#159 = CALENDAR_DATE ( 2009, 14, 9 ) ;
#160 = LOCAL_TIME ( 16, 12, 44.00000000000000000, #209 ) ;
#161 = PRODUCT_RELATED_PRODUCT_CATEGORY ( 'detail', '', ( #197 ) ) ;
#162 = CC_DESIGN_SECURITY_CLASSIFICATION ( #213, ( #186 ) ) ;
#163 = CC_DESIGN_APPROVAL ( #153, ( #213 ) ) ;
#164 = APPROVAL_DATE_TIME ( #165, #153 ) ;
#165 = DATE_AND_TIME ( #166, #167 ) ;
#166 = CALENDAR_DATE ( 2009, 14, 9 ) ;
#167 = LOCAL_TIME ( 16, 12, 44.00000000000000000, #168 ) ;
#168 = COORDINATED_UNIVERSAL_TIME_OFFSET ( 5, 0, .BEHIND. ) ;
#169 = APPROVAL_PERSON_ORGANIZATION ( #155, #153, #152 ) ;
#170 = PERSON_AND_ORGANIZATION ( #226, #188 ) ;
#171 = CC_DESIGN_PERSON_AND_ORGANIZATION_ASSIGNMENT ( #173, #172, ( #186 ) ) ;
#172 = PERSON_AND_ORGANIZATION_ROLE ( 'creator' ) ;
#173 = PERSON_AND_ORGANIZATION ( #226, #188 ) ;
#174 = CC_DESIGN_APPROVAL ( #183, ( #186 ) ) ;
#175 = APPROVAL_DATE_TIME ( #176, #183 ) ;
#176 = DATE_AND_TIME ( #177, #178 ) ;
#177 = CALENDAR_DATE ( 2009, 14, 9 ) ;
#178 = LOCAL_TIME ( 16, 12, 44.00000000000000000, #180 ) ;
#179 = SHAPE_DEFINITION_REPRESENTATION ( #151, #1 ) ;
#180 = COORDINATED_UNIVERSAL_TIME_OFFSET ( 5, 0, .BEHIND. ) ;
#181 = APPROVAL_PERSON_ORGANIZATION ( #185, #183, #182 ) ;
#182 = APPROVAL_ROLE ( '' ) ;
#183 = APPROVAL ( #184, 'UNSPECIFIED' ) ;
#184 = APPROVAL_STATUS ( 'not_yet_approved' ) ;
#185 = PERSON_AND_ORGANIZATION ( #226, #188 ) ;
#186 = PRODUCT_DEFINITION_FORMATION_WITH_SPECIFIED_SOURCE ( 'ANY', '', #197, .NOT_KNOWN. ) ;
#187 = PERSON_AND_ORGANIZATION ( #226, #188 ) ;
#188 = ORGANIZATION ( 'UNSPECIFIED', 'UNSPECIFIED', '' ) ;
#189 = AXIS2_PLACEMENT_3D ( 'NONE', #150, #224, #227 ) ;
#190 = CC_DESIGN_DATE_AND_TIME_ASSIGNMENT ( #192, #191, ( #206 ) ) ;
#191 = DATE_TIME_ROLE ( 'creation_date' ) ;
#192 = DATE_AND_TIME ( #193, #194 ) ;
#193 = CALENDAR_DATE ( 2009, 14, 9 ) ;
#194 = LOCAL_TIME ( 16, 12, 44.00000000000000000, #195 ) ;
#195 = COORDINATED_UNIVERSAL_TIME_OFFSET ( 5, 0, .BEHIND. ) ;
#196 = CC_DESIGN_PERSON_AND_ORGANIZATION_ASSIGNMENT ( #218, #217, ( #206 ) ) ;
#197 = PRODUCT ( '20229-E0W', '20229-E0W', '', ( #198 ) ) ;
#198 = MECHANICAL_CONTEXT ( 'NONE', #225, 'mechanical' ) ;
#199 = APPLICATION_PROTOCOL_DEFINITION ( 'international standard', 'config_control_design', 1994, #225 ) ;
#200 = COORDINATED_UNIVERSAL_TIME_OFFSET ( 5, 0, .BEHIND. ) ;
#201 = APPROVAL_PERSON_ORGANIZATION ( #205, #203, #202 ) ;
#202 = APPROVAL_ROLE ( '' ) ;
#203 = APPROVAL ( #204, 'UNSPECIFIED' ) ;
#204 = APPROVAL_STATUS ( 'not_yet_approved' ) ;
#205 = PERSON_AND_ORGANIZATION ( #226, #188 ) ;
#206 = PRODUCT_DEFINITION ( 'UNKNOWN', '', #186, #207 ) ;
#207 = DESIGN_CONTEXT ( 'detailed design', #147, 'design' ) ;
#208 = APPLICATION_PROTOCOL_DEFINITION ( 'international standard', 'config_control_design', 1994, #147 ) ;
#209 = COORDINATED_UNIVERSAL_TIME_OFFSET ( 5, 0, .BEHIND. ) ;
#210 = CC_DESIGN_PERSON_AND_ORGANIZATION_ASSIGNMENT ( #212, #211, ( #213 ) ) ;
#211 = PERSON_AND_ORGANIZATION_ROLE ( 'classification_officer' ) ;
#212 = PERSON_AND_ORGANIZATION ( #226, #188 ) ;
#213 = SECURITY_CLASSIFICATION ( '', '', #214 ) ;
#214 = SECURITY_CLASSIFICATION_LEVEL ( 'unclassified' ) ;
#215 = CC_DESIGN_PERSON_AND_ORGANIZATION_ASSIGNMENT ( #170, #216, ( #186 ) ) ;
#216 = PERSON_AND_ORGANIZATION_ROLE ( 'design_supplier' ) ;
#217 = PERSON_AND_ORGANIZATION_ROLE ( 'creator' ) ;
#218 = PERSON_AND_ORGANIZATION ( #226, #188 ) ;
#219 = CC_DESIGN_APPROVAL ( #203, ( #206 ) ) ;
#220 = APPROVAL_DATE_TIME ( #221, #203 ) ;
#221 = DATE_AND_TIME ( #222, #223 ) ;
#222 = CALENDAR_DATE ( 2009, 14, 9 ) ;
#223 = LOCAL_TIME ( 16, 12, 44.00000000000000000, #200 ) ;
#224 = DIRECTION ( 'NONE',  ( 0.0000000000000000000, 0.0000000000000000000, 1.000000000000000000 ) ) ;
#225 = APPLICATION_CONTEXT ( 'configuration controlled 3d designs of mechanical parts and assemblies' ) ;
#226 = PERSON ( 'UNSPECIFIED', 'UNSPECIFIED', 'UNSPECIFIED', ('UNSPECIFIED'), ('UNSPECIFIED'), ('UNSPECIFIED') ) ;
#227 = DIRECTION ( 'NONE',  ( 1.000000000000000000, 0.0000000000000000000, 0.0000000000000000000 ) ) ;
ENDSEC;
END-ISO-10303-21;
