ISO-10303-21;
HEADER;
FILE_DESCRIPTION (( 'STEP AP203' ),
    '1' );
FILE_NAME ('Web Model 48864_48868.step',
    '2017-05-09T19:00:29',
    ( '' ),
    ( '' ),
    'SwSTEP 2.0',
    'SolidWorks 2016',
    '' );
FILE_SCHEMA (( 'CONFIG_CONTROL_DESIGN' ));
ENDSEC;

DATA;
#1 = AXIS2_PLACEMENT_3D ( 'NONE', #209, #231, #318 ) ;
#2 = ORGANIZATION ( 'UNSPECIFIED', 'UNSPECIFIED', '' ) ;
#3 = EDGE_CURVE ( 'NONE', #215, #63, #197, .T. ) ;
#4 = ADVANCED_FACE ( 'NONE', ( #158 ), #168, .T. ) ;
#5 = MANIFOLD_SOLID_BREP ( 'Boss-Extrude3', #58 ) ;
#6 = ORIENTED_EDGE ( 'NONE', *, *, #308, .F. ) ;
#7 = EDGE_CURVE ( 'NONE', #141, #87, #242, .T. ) ;
#8 = LINE ( 'NONE', #42, #208 ) ;
#9 = ORIENTED_EDGE ( 'NONE', *, *, #33, .T. ) ;
#10 = CARTESIAN_POINT ( 'NONE',  ( 25.00000000000000000, 0.0000000000000000000, 25.00000000000000000 ) ) ;
#11 = CC_DESIGN_DATE_AND_TIME_ASSIGNMENT ( #143, #255, ( #142 ) ) ;
#12 = DIRECTION ( 'NONE',  ( 0.0000000000000000000, 1.000000000000000000, -0.0000000000000000000 ) ) ;
#13 = LINE ( 'NONE', #241, #52 ) ;
#14 = DIRECTION ( 'NONE',  ( -0.0000000000000000000, 0.0000000000000000000, 1.000000000000000000 ) ) ;
#15 = DIRECTION ( 'NONE',  ( 0.7071067811865475700, 0.7071067811865475700, -0.0000000000000000000 ) ) ;
#16 = CC_DESIGN_APPROVAL ( #96, ( #207 ) ) ;
#17 = ORIENTED_EDGE ( 'NONE', *, *, #61, .F. ) ;
#18 = CLOSED_SHELL ( 'NONE', ( #27, #163, #107, #232, #258 ) ) ;
#19 = DIRECTION ( 'NONE',  ( 0.7071067811865474600, -0.7071067811865474600, 0.0000000000000000000 ) ) ;
#20 = DIRECTION ( 'NONE',  ( -0.7071067811865474600, 0.7071067811865474600, 0.0000000000000000000 ) ) ;
#21 = CARTESIAN_POINT ( 'NONE',  ( 25.00000000000000000, -25.00000000000000000, 25.00000000000000000 ) ) ;
#22 = VECTOR ( 'NONE', #277, 1000.000000000000000 ) ;
#23 = ORIENTED_EDGE ( 'NONE', *, *, #90, .F. ) ;
#24 =( NAMED_UNIT ( * ) PLANE_ANGLE_UNIT ( ) SI_UNIT ( $, .RADIAN. ) );
#25 = EDGE_CURVE ( 'NONE', #111, #141, #83, .T. ) ;
#26 = VECTOR ( 'NONE', #172, 1000.000000000000100 ) ;
#27 = ADVANCED_FACE ( 'NONE', ( #98 ), #174, .T. ) ;
#28 = DIRECTION ( 'NONE',  ( 0.7071067811865474600, -0.7071067811865474600, 0.0000000000000000000 ) ) ;
#29 = EDGE_CURVE ( 'NONE', #63, #260, #13, .T. ) ;
#30 = UNCERTAINTY_MEASURE_WITH_UNIT (LENGTH_MEASURE( 1.000000000000000100E-005 ), #133, 'distance_accuracy_value', 'NONE');
#31 = PERSON_AND_ORGANIZATION ( #153, #2 ) ;
#32 = FACE_OUTER_BOUND ( 'NONE', #283, .T. ) ;
#33 = EDGE_CURVE ( 'NONE', #314, #235, #34, .T. ) ;
#34 = LINE ( 'NONE', #65, #295 ) ;
#35 = ORIENTED_EDGE ( 'NONE', *, *, #282, .F. ) ;
#36 = CC_DESIGN_PERSON_AND_ORGANIZATION_ASSIGNMENT ( #72, #321, ( #207 ) ) ;
#37 = CALENDAR_DATE ( 2017, 9, 5 ) ;
#38 = EDGE_LOOP ( 'NONE', ( #266, #194, #23 ) ) ;
#39 = ADVANCED_BREP_SHAPE_REPRESENTATION ( 'Web Model 48864_48868', ( #64, #5, #1 ), #200 ) ;
#40 = EDGE_CURVE ( 'NONE', #307, #92, #151, .T. ) ;
#41 = ORIENTED_EDGE ( 'NONE', *, *, #54, .T. ) ;
#42 = CARTESIAN_POINT ( 'NONE',  ( 0.0000000000000000000, 25.00000000000000000, 25.00000000000000000 ) ) ;
#43 = PRODUCT_DEFINITION_SHAPE ( 'NONE', 'NONE',  #207 ) ;
#44 = CARTESIAN_POINT ( 'NONE',  ( 0.0000000000000000000, 0.0000000000000000000, 25.00000000000000000 ) ) ;
#45 = CARTESIAN_POINT ( 'NONE',  ( -25.00000000000000000, 25.00000000000000000, 25.00000000000000000 ) ) ;
#46 = DIRECTION ( 'NONE',  ( 1.000000000000000000, 0.0000000000000000000, 0.0000000000000000000 ) ) ;
#47 = CC_DESIGN_APPROVAL ( #115, ( #142 ) ) ;
#48 = APPROVAL_DATE_TIME ( #108, #96 ) ;
#49 = ORIENTED_EDGE ( 'NONE', *, *, #40, .T. ) ;
#50 = APPROVAL_STATUS ( 'not_yet_approved' ) ;
#51 = LINE ( 'NONE', #257, #97 ) ;
#52 = VECTOR ( 'NONE', #195, 1000.000000000000000 ) ;
#53 = ADVANCED_FACE ( 'NONE', ( #279 ), #288, .F. ) ;
#54 = EDGE_CURVE ( 'NONE', #203, #92, #221, .T. ) ;
#55 = APPLICATION_CONTEXT ( 'configuration controlled 3d designs of mechanical parts and assemblies' ) ;
#56 = ADVANCED_FACE ( 'NONE', ( #32 ), #154, .F. ) ;
#57 = LOCAL_TIME ( 15, 0, 29.00000000000000000, #213 ) ;
#58 = CLOSED_SHELL ( 'NONE', ( #53, #56, #4, #105, #256 ) ) ;
#59 = VECTOR ( 'NONE', #317, 1000.000000000000100 ) ;
#60 = ORIENTED_EDGE ( 'NONE', *, *, #282, .T. ) ;
#61 = EDGE_CURVE ( 'NONE', #87, #235, #226, .T. ) ;
#62 = LOCAL_TIME ( 15, 0, 29.00000000000000000, #128 ) ;
#63 = VERTEX_POINT ( 'NONE', #293 ) ;
#64 = MANIFOLD_SOLID_BREP ( 'Boss-Extrude2', #18 ) ;
#65 = CARTESIAN_POINT ( 'NONE',  ( 25.00000000000000000, 0.0000000000000000000, -25.00000000000000000 ) ) ;
#66 = COORDINATED_UNIVERSAL_TIME_OFFSET ( 5, 0, .BEHIND. ) ;
#67 = LINE ( 'NONE', #45, #320 ) ;
#68 = ORIENTED_EDGE ( 'NONE', *, *, #90, .T. ) ;
#69 = CARTESIAN_POINT ( 'NONE',  ( 0.0000000000000000000, -25.00000000000000000, 25.00000000000000000 ) ) ;
#70 = CARTESIAN_POINT ( 'NONE',  ( 0.0000000000000000000, 0.0000000000000000000, 25.00000000000000000 ) ) ;
#71 = EDGE_CURVE ( 'NONE', #215, #203, #300, .T. ) ;
#72 = PERSON_AND_ORGANIZATION ( #153, #2 ) ;
#73 = DIRECTION ( 'NONE',  ( -0.0000000000000000000, -0.0000000000000000000, -1.000000000000000000 ) ) ;
#74 = DIRECTION ( 'NONE',  ( 0.0000000000000000000, -0.0000000000000000000, 1.000000000000000000 ) ) ;
#75 = PLANE ( 'NONE',  #284 ) ;
#76 = PERSON_AND_ORGANIZATION_ROLE ( 'creator' ) ;
#77 = VECTOR ( 'NONE', #19, 1000.000000000000100 ) ;
#78 = APPLICATION_PROTOCOL_DEFINITION ( 'international standard', 'config_control_design', 1994, #55 ) ;
#79 = VECTOR ( 'NONE', #204, 1000.000000000000000 ) ;
#80 = CARTESIAN_POINT ( 'NONE',  ( -25.00000000000000000, 25.00000000000000000, -25.00000000000000000 ) ) ;
#81 = EDGE_LOOP ( 'NONE', ( #171, #35, #305, #301 ) ) ;
#82 = EDGE_CURVE ( 'NONE', #219, #235, #240, .T. ) ;
#83 = LINE ( 'NONE', #198, #26 ) ;
#84 = FACE_OUTER_BOUND ( 'NONE', #38, .T. ) ;
#85 = AXIS2_PLACEMENT_3D ( 'NONE', #44, #14, #268 ) ;
#86 = PERSON_AND_ORGANIZATION ( #153, #2 ) ;
#87 = VERTEX_POINT ( 'NONE', #225 ) ;
#88 = DIRECTION ( 'NONE',  ( -1.000000000000000000, 0.0000000000000000000, 0.0000000000000000000 ) ) ;
#89 = DIRECTION ( 'NONE',  ( 1.000000000000000000, 0.0000000000000000000, 0.0000000000000000000 ) ) ;
#90 = EDGE_CURVE ( 'NONE', #111, #87, #8, .T. ) ;
#91 = CARTESIAN_POINT ( 'NONE',  ( -25.00000000000000000, -25.00000000000000000, 25.00000000000000000 ) ) ;
#92 = VERTEX_POINT ( 'NONE', #245 ) ;
#93 = DIRECTION ( 'NONE',  ( -0.7071067811865474600, 0.7071067811865474600, 0.0000000000000000000 ) ) ;
#94 = CARTESIAN_POINT ( 'NONE',  ( 0.0000000000000000000, 0.0000000000000000000, -25.00000000000000000 ) ) ;
#95 = CARTESIAN_POINT ( 'NONE',  ( 25.00000000000000000, 0.0000000000000000000, 25.00000000000000000 ) ) ;
#96 = APPROVAL ( #249, 'UNSPECIFIED' ) ;
#97 = VECTOR ( 'NONE', #28, 1000.000000000000100 ) ;
#98 = FACE_OUTER_BOUND ( 'NONE', #211, .T. ) ;
#99 = DIRECTION ( 'NONE',  ( -0.0000000000000000000, 0.0000000000000000000, 1.000000000000000000 ) ) ;
#100 = PERSON_AND_ORGANIZATION_ROLE ( 'design_supplier' ) ;
#101 = CARTESIAN_POINT ( 'NONE',  ( 25.00000000000000000, -25.00000000000000000, -25.00000000000000000 ) ) ;
#102 = VECTOR ( 'NONE', #167, 1000.000000000000000 ) ;
#103 = ORIENTED_EDGE ( 'NONE', *, *, #155, .F. ) ;
#104 = CARTESIAN_POINT ( 'NONE',  ( 0.0000000000000000000, 0.0000000000000000000, -25.00000000000000000 ) ) ;
#105 = ADVANCED_FACE ( 'NONE', ( #84 ), #75, .T. ) ;
#106 = PRODUCT_DEFINITION_FORMATION_WITH_SPECIFIED_SOURCE ( 'ANY', '', #126, .NOT_KNOWN. ) ;
#107 = ADVANCED_FACE ( 'NONE', ( #162 ), #292, .T. ) ;
#108 = DATE_AND_TIME ( #196, #193 ) ;
#109 = ORIENTED_EDGE ( 'NONE', *, *, #155, .T. ) ;
#110 = LINE ( 'NONE', #152, #22 ) ;
#111 = VERTEX_POINT ( 'NONE', #124 ) ;
#112 = ORIENTED_EDGE ( 'NONE', *, *, #40, .F. ) ;
#113 = APPROVAL_DATE_TIME ( #239, #115 ) ;
#114 = ORIENTED_EDGE ( 'NONE', *, *, #298, .T. ) ;
#115 = APPROVAL ( #183, 'UNSPECIFIED' ) ;
#116 = DIRECTION ( 'NONE',  ( 0.0000000000000000000, 1.000000000000000000, -0.0000000000000000000 ) ) ;
#117 = CC_DESIGN_PERSON_AND_ORGANIZATION_ASSIGNMENT ( #275, #160, ( #142 ) ) ;
#118 = SHAPE_DEFINITION_REPRESENTATION ( #43, #39 ) ;
#119 = ORIENTED_EDGE ( 'NONE', *, *, #82, .F. ) ;
#120 = ORIENTED_EDGE ( 'NONE', *, *, #298, .F. ) ;
#121 = DIRECTION ( 'NONE',  ( 0.0000000000000000000, 1.000000000000000000, 0.0000000000000000000 ) ) ;
#122 = CARTESIAN_POINT ( 'NONE',  ( -0.0000000000000000000, 0.0000000000000000000, -25.00000000000000000 ) ) ;
#123 = APPROVAL ( #50, 'UNSPECIFIED' ) ;
#124 = CARTESIAN_POINT ( 'NONE',  ( -25.00000000000000000, 25.00000000000000000, 25.00000000000000000 ) ) ;
#125 = COORDINATED_UNIVERSAL_TIME_OFFSET ( 5, 0, .BEHIND. ) ;
#126 = PRODUCT ( 'Web Model 48864_48868', 'Web Model 48864_48868', '', ( #233 ) ) ;
#127 = PERSON_AND_ORGANIZATION_ROLE ( 'design_owner' ) ;
#128 = COORDINATED_UNIVERSAL_TIME_OFFSET ( 5, 0, .BEHIND. ) ;
#129 = VECTOR ( 'NONE', #179, 1000.000000000000000 ) ;
#130 = APPLICATION_CONTEXT ( 'configuration controlled 3d designs of mechanical parts and assemblies' ) ;
#131 = ORIENTED_EDGE ( 'NONE', *, *, #261, .T. ) ;
#132 = AXIS2_PLACEMENT_3D ( 'NONE', #69, #121, #74 ) ;
#133 =( LENGTH_UNIT ( ) NAMED_UNIT ( * ) SI_UNIT ( .MILLI., .METRE. ) );
#134 = DIRECTION ( 'NONE',  ( -0.0000000000000000000, -0.0000000000000000000, -1.000000000000000000 ) ) ;
#135 = DESIGN_CONTEXT ( 'detailed design', #130, 'design' ) ;
#136 = APPROVAL_PERSON_ORGANIZATION ( #184, #123, #227 ) ;
#137 = ORIENTED_EDGE ( 'NONE', *, *, #82, .T. ) ;
#138 = CC_DESIGN_SECURITY_CLASSIFICATION ( #142, ( #106 ) ) ;
#139 = PERSON_AND_ORGANIZATION ( #153, #2 ) ;
#140 = EDGE_LOOP ( 'NONE', ( #120, #280, #192, #41 ) ) ;
#141 = VERTEX_POINT ( 'NONE', #21 ) ;
#142 = SECURITY_CLASSIFICATION ( '', '', #297 ) ;
#143 = DATE_AND_TIME ( #210, #57 ) ;
#144 = CARTESIAN_POINT ( 'NONE',  ( 0.0000000000000000000, 25.00000000000000000, 25.00000000000000000 ) ) ;
#145 = PERSON_AND_ORGANIZATION ( #153, #2 ) ;
#146 = DIRECTION ( 'NONE',  ( 0.0000000000000000000, 0.0000000000000000000, 1.000000000000000000 ) ) ;
#147 = FACE_OUTER_BOUND ( 'NONE', #312, .T. ) ;
#148 = EDGE_LOOP ( 'NONE', ( #186, #137, #291 ) ) ;
#149 = DIRECTION ( 'NONE',  ( 0.0000000000000000000, -0.0000000000000000000, 1.000000000000000000 ) ) ;
#150 = CARTESIAN_POINT ( 'NONE',  ( 25.00000000000000000, -25.00000000000000000, 25.00000000000000000 ) ) ;
#151 = LINE ( 'NONE', #311, #287 ) ;
#152 = CARTESIAN_POINT ( 'NONE',  ( -25.00000000000000000, -25.00000000000000000, 25.00000000000000000 ) ) ;
#153 = PERSON ( 'UNSPECIFIED', 'UNSPECIFIED', 'UNSPECIFIED', ('UNSPECIFIED'), ('UNSPECIFIED'), ('UNSPECIFIED') ) ;
#154 = PLANE ( 'NONE',  #224 ) ;
#155 = EDGE_CURVE ( 'NONE', #307, #260, #181, .T. ) ;
#156 = APPROVAL_ROLE ( '' ) ;
#157 = CALENDAR_DATE ( 2017, 9, 5 ) ;
#158 = FACE_OUTER_BOUND ( 'NONE', #177, .T. ) ;
#159 = AXIS2_PLACEMENT_3D ( 'NONE', #104, #278, #228 ) ;
#160 = PERSON_AND_ORGANIZATION_ROLE ( 'classification_officer' ) ;
#161 = DATE_TIME_ROLE ( 'creation_date' ) ;
#162 = FACE_OUTER_BOUND ( 'NONE', #140, .T. ) ;
#163 = ADVANCED_FACE ( 'NONE', ( #147 ), #220, .F. ) ;
#164 = VECTOR ( 'NONE', #46, 1000.000000000000000 ) ;
#165 = AXIS2_PLACEMENT_3D ( 'NONE', #217, #88, #146 ) ;
#166 = VECTOR ( 'NONE', #205, 1000.000000000000000 ) ;
#167 = DIRECTION ( 'NONE',  ( 0.0000000000000000000, 1.000000000000000000, -0.0000000000000000000 ) ) ;
#168 = PLANE ( 'NONE',  #169 ) ;
#169 = AXIS2_PLACEMENT_3D ( 'NONE', #144, #286, #149 ) ;
#170 = COORDINATED_UNIVERSAL_TIME_OFFSET ( 5, 0, .BEHIND. ) ;
#171 = ORIENTED_EDGE ( 'NONE', *, *, #238, .T. ) ;
#172 = DIRECTION ( 'NONE',  ( 0.7071067811865474600, -0.7071067811865474600, 0.0000000000000000000 ) ) ;
#173 = CARTESIAN_POINT ( 'NONE',  ( -25.00000000000000000, 0.0000000000000000000, 25.00000000000000000 ) ) ;
#174 = PLANE ( 'NONE',  #165 ) ;
#175 = CARTESIAN_POINT ( 'NONE',  ( -25.00000000000000000, 0.0000000000000000000, -25.00000000000000000 ) ) ;
#176 = VECTOR ( 'NONE', #12, 1000.000000000000000 ) ;
#177 = EDGE_LOOP ( 'NONE', ( #119, #306, #68, #264 ) ) ;
#178 = PLANE ( 'NONE',  #159 ) ;
#179 = DIRECTION ( 'NONE',  ( 1.000000000000000000, 0.0000000000000000000, 0.0000000000000000000 ) ) ;
#180 = EDGE_CURVE ( 'NONE', #111, #219, #67, .T. ) ;
#181 = LINE ( 'NONE', #175, #166 ) ;
#182 = DIRECTION ( 'NONE',  ( -1.000000000000000000, 0.0000000000000000000, 0.0000000000000000000 ) ) ;
#183 = APPROVAL_STATUS ( 'not_yet_approved' ) ;
#184 = PERSON_AND_ORGANIZATION ( #153, #2 ) ;
#185 = VECTOR ( 'NONE', #73, 1000.000000000000000 ) ;
#186 = ORIENTED_EDGE ( 'NONE', *, *, #238, .F. ) ;
#187 = AXIS2_PLACEMENT_3D ( 'NONE', #218, #313, #20 ) ;
#188 = CARTESIAN_POINT ( 'NONE',  ( -25.00000000000000000, -25.00000000000000000, -25.00000000000000000 ) ) ;
#189 = PRODUCT_RELATED_PRODUCT_CATEGORY ( 'detail', '', ( #126 ) ) ;
#190 = APPROVAL_DATE_TIME ( #304, #123 ) ;
#191 = ORIENTED_EDGE ( 'NONE', *, *, #71, .T. ) ;
#192 = ORIENTED_EDGE ( 'NONE', *, *, #308, .T. ) ;
#193 = LOCAL_TIME ( 15, 0, 29.00000000000000000, #66 ) ;
#194 = ORIENTED_EDGE ( 'NONE', *, *, #7, .T. ) ;
#195 = DIRECTION ( 'NONE',  ( -0.0000000000000000000, -0.0000000000000000000, -1.000000000000000000 ) ) ;
#196 = CALENDAR_DATE ( 2017, 9, 5 ) ;
#197 = LINE ( 'NONE', #173, #102 ) ;
#198 = CARTESIAN_POINT ( 'NONE',  ( 0.0000000000000000000, 0.0000000000000000000, 25.00000000000000000 ) ) ;
#199 = CARTESIAN_POINT ( 'NONE',  ( -25.00000000000000000, 25.00000000000000000, -25.00000000000000000 ) ) ;
#200 =( GEOMETRIC_REPRESENTATION_CONTEXT ( 3 ) GLOBAL_UNCERTAINTY_ASSIGNED_CONTEXT ( ( #30 ) ) GLOBAL_UNIT_ASSIGNED_CONTEXT ( ( #133, #24, #274 ) ) REPRESENTATION_CONTEXT ( 'NONE', 'WORKASPACE' ) );
#201 = PLANE ( 'NONE',  #85 ) ;
#202 = CARTESIAN_POINT ( 'NONE',  ( -0.0000000000000000000, 25.00000000000000000, -25.00000000000000000 ) ) ;
#203 = VERTEX_POINT ( 'NONE', #150 ) ;
#204 = DIRECTION ( 'NONE',  ( -0.0000000000000000000, -0.0000000000000000000, -1.000000000000000000 ) ) ;
#205 = DIRECTION ( 'NONE',  ( 0.0000000000000000000, 1.000000000000000000, -0.0000000000000000000 ) ) ;
#206 = CARTESIAN_POINT ( 'NONE',  ( 25.00000000000000000, -25.00000000000000000, 25.00000000000000000 ) ) ;
#207 = PRODUCT_DEFINITION ( 'UNKNOWN', '', #106, #135 ) ;
#208 = VECTOR ( 'NONE', #294, 1000.000000000000000 ) ;
#209 = CARTESIAN_POINT ( 'NONE',  ( 0.0000000000000000000, 0.0000000000000000000, 0.0000000000000000000 ) ) ;
#210 = CALENDAR_DATE ( 2017, 9, 5 ) ;
#211 = EDGE_LOOP ( 'NONE', ( #103, #310, #237, #269 ) ) ;
#212 = CC_DESIGN_DATE_AND_TIME_ASSIGNMENT ( #263, #161, ( #207 ) ) ;
#213 = COORDINATED_UNIVERSAL_TIME_OFFSET ( 5, 0, .BEHIND. ) ;
#214 = EDGE_LOOP ( 'NONE', ( #109, #114, #112 ) ) ;
#215 = VERTEX_POINT ( 'NONE', #91 ) ;
#216 = EDGE_LOOP ( 'NONE', ( #236, #191, #6 ) ) ;
#217 = CARTESIAN_POINT ( 'NONE',  ( -25.00000000000000000, 0.0000000000000000000, 25.00000000000000000 ) ) ;
#218 = CARTESIAN_POINT ( 'NONE',  ( 0.0000000000000000000, 0.0000000000000000000, 25.00000000000000000 ) ) ;
#219 = VERTEX_POINT ( 'NONE', #199 ) ;
#220 = PLANE ( 'NONE',  #132 ) ;
#221 = LINE ( 'NONE', #273, #79 ) ;
#222 = CARTESIAN_POINT ( 'NONE',  ( 0.0000000000000000000, -25.00000000000000000, 25.00000000000000000 ) ) ;
#223 = PLANE ( 'NONE',  #229 ) ;
#224 = AXIS2_PLACEMENT_3D ( 'NONE', #95, #182, #244 ) ;
#225 = CARTESIAN_POINT ( 'NONE',  ( 25.00000000000000000, 25.00000000000000000, 25.00000000000000000 ) ) ;
#226 = LINE ( 'NONE', #289, #185 ) ;
#227 = APPROVAL_ROLE ( '' ) ;
#228 = DIRECTION ( 'NONE',  ( 1.000000000000000000, 0.0000000000000000000, 0.0000000000000000000 ) ) ;
#229 = AXIS2_PLACEMENT_3D ( 'NONE', #94, #276, #302 ) ;
#230 = FACE_OUTER_BOUND ( 'NONE', #214, .T. ) ;
#231 = DIRECTION ( 'NONE',  ( 0.0000000000000000000, 0.0000000000000000000, 1.000000000000000000 ) ) ;
#232 = ADVANCED_FACE ( 'NONE', ( #290 ), #201, .T. ) ;
#233 = MECHANICAL_CONTEXT ( 'NONE', #55, 'mechanical' ) ;
#234 = VECTOR ( 'NONE', #134, 1000.000000000000000 ) ;
#235 = VERTEX_POINT ( 'NONE', #267 ) ;
#236 = ORIENTED_EDGE ( 'NONE', *, *, #3, .F. ) ;
#237 = ORIENTED_EDGE ( 'NONE', *, *, #3, .T. ) ;
#238 = EDGE_CURVE ( 'NONE', #219, #314, #262, .T. ) ;
#239 = DATE_AND_TIME ( #246, #62 ) ;
#240 = LINE ( 'NONE', #202, #129 ) ;
#241 = CARTESIAN_POINT ( 'NONE',  ( -25.00000000000000000, 25.00000000000000000, 25.00000000000000000 ) ) ;
#242 = LINE ( 'NONE', #10, #176 ) ;
#243 = CC_DESIGN_PERSON_AND_ORGANIZATION_ASSIGNMENT ( #86, #127, ( #126 ) ) ;
#244 = DIRECTION ( 'NONE',  ( 0.0000000000000000000, 0.0000000000000000000, 1.000000000000000000 ) ) ;
#245 = CARTESIAN_POINT ( 'NONE',  ( 25.00000000000000000, -25.00000000000000000, -25.00000000000000000 ) ) ;
#246 = CALENDAR_DATE ( 2017, 9, 5 ) ;
#247 = ORIENTED_EDGE ( 'NONE', *, *, #7, .F. ) ;
#248 = DIRECTION ( 'NONE',  ( -0.0000000000000000000, -0.0000000000000000000, -1.000000000000000000 ) ) ;
#249 = APPROVAL_STATUS ( 'not_yet_approved' ) ;
#250 = CC_DESIGN_PERSON_AND_ORGANIZATION_ASSIGNMENT ( #319, #100, ( #106 ) ) ;
#251 = APPROVAL_ROLE ( '' ) ;
#252 = LOCAL_TIME ( 15, 0, 29.00000000000000000, #170 ) ;
#253 = FACE_OUTER_BOUND ( 'NONE', #148, .T. ) ;
#254 = CARTESIAN_POINT ( 'NONE',  ( -0.0000000000000000000, 0.0000000000000000000, -25.00000000000000000 ) ) ;
#255 = DATE_TIME_ROLE ( 'classification_date' ) ;
#256 = ADVANCED_FACE ( 'NONE', ( #253 ), #223, .F. ) ;
#257 = CARTESIAN_POINT ( 'NONE',  ( 0.0000000000000000000, 0.0000000000000000000, 25.00000000000000000 ) ) ;
#258 = ADVANCED_FACE ( 'NONE', ( #230 ), #178, .F. ) ;
#259 = LINE ( 'NONE', #254, #59 ) ;
#260 = VERTEX_POINT ( 'NONE', #80 ) ;
#261 = EDGE_CURVE ( 'NONE', #215, #307, #110, .T. ) ;
#262 = LINE ( 'NONE', #122, #77 ) ;
#263 = DATE_AND_TIME ( #157, #252 ) ;
#264 = ORIENTED_EDGE ( 'NONE', *, *, #61, .T. ) ;
#265 = LOCAL_TIME ( 15, 0, 29.00000000000000000, #125 ) ;
#266 = ORIENTED_EDGE ( 'NONE', *, *, #25, .T. ) ;
#267 = CARTESIAN_POINT ( 'NONE',  ( 25.00000000000000000, 25.00000000000000000, -25.00000000000000000 ) ) ;
#268 = DIRECTION ( 'NONE',  ( 1.000000000000000000, 0.0000000000000000000, 0.0000000000000000000 ) ) ;
#269 = ORIENTED_EDGE ( 'NONE', *, *, #29, .T. ) ;
#270 = ORIENTED_EDGE ( 'NONE', *, *, #54, .F. ) ;
#271 = DIRECTION ( 'NONE',  ( 1.000000000000000000, 0.0000000000000000000, 0.0000000000000000000 ) ) ;
#272 = AXIS2_PLACEMENT_3D ( 'NONE', #316, #15, #93 ) ;
#273 = CARTESIAN_POINT ( 'NONE',  ( 25.00000000000000000, -25.00000000000000000, 25.00000000000000000 ) ) ;
#274 =( NAMED_UNIT ( * ) SI_UNIT ( $, .STERADIAN. ) SOLID_ANGLE_UNIT ( ) );
#275 = PERSON_AND_ORGANIZATION ( #153, #2 ) ;
#276 = DIRECTION ( 'NONE',  ( -0.0000000000000000000, 0.0000000000000000000, 1.000000000000000000 ) ) ;
#277 = DIRECTION ( 'NONE',  ( -0.0000000000000000000, -0.0000000000000000000, -1.000000000000000000 ) ) ;
#278 = DIRECTION ( 'NONE',  ( -0.0000000000000000000, 0.0000000000000000000, 1.000000000000000000 ) ) ;
#279 = FACE_OUTER_BOUND ( 'NONE', #81, .T. ) ;
#280 = ORIENTED_EDGE ( 'NONE', *, *, #29, .F. ) ;
#281 = ORIENTED_EDGE ( 'NONE', *, *, #71, .F. ) ;
#282 = EDGE_CURVE ( 'NONE', #141, #314, #299, .T. ) ;
#283 = EDGE_LOOP ( 'NONE', ( #9, #17, #247, #60 ) ) ;
#284 = AXIS2_PLACEMENT_3D ( 'NONE', #70, #99, #271 ) ;
#285 = APPROVAL_PERSON_ORGANIZATION ( #31, #96, #156 ) ;
#286 = DIRECTION ( 'NONE',  ( 0.0000000000000000000, 1.000000000000000000, 0.0000000000000000000 ) ) ;
#287 = VECTOR ( 'NONE', #89, 1000.000000000000000 ) ;
#288 = PLANE ( 'NONE',  #187 ) ;
#289 = CARTESIAN_POINT ( 'NONE',  ( 25.00000000000000000, 25.00000000000000000, 25.00000000000000000 ) ) ;
#290 = FACE_OUTER_BOUND ( 'NONE', #216, .T. ) ;
#291 = ORIENTED_EDGE ( 'NONE', *, *, #33, .F. ) ;
#292 = PLANE ( 'NONE',  #272 ) ;
#293 = CARTESIAN_POINT ( 'NONE',  ( -25.00000000000000000, 25.00000000000000000, 25.00000000000000000 ) ) ;
#294 = DIRECTION ( 'NONE',  ( 1.000000000000000000, 0.0000000000000000000, 0.0000000000000000000 ) ) ;
#295 = VECTOR ( 'NONE', #116, 1000.000000000000000 ) ;
#296 = APPLICATION_PROTOCOL_DEFINITION ( 'international standard', 'config_control_design', 1994, #130 ) ;
#297 = SECURITY_CLASSIFICATION_LEVEL ( 'unclassified' ) ;
#298 = EDGE_CURVE ( 'NONE', #260, #92, #259, .T. ) ;
#299 = LINE ( 'NONE', #206, #234 ) ;
#300 = LINE ( 'NONE', #222, #164 ) ;
#301 = ORIENTED_EDGE ( 'NONE', *, *, #180, .T. ) ;
#302 = DIRECTION ( 'NONE',  ( 1.000000000000000000, 0.0000000000000000000, 0.0000000000000000000 ) ) ;
#303 = CC_DESIGN_APPROVAL ( #123, ( #106 ) ) ;
#304 = DATE_AND_TIME ( #37, #265 ) ;
#305 = ORIENTED_EDGE ( 'NONE', *, *, #25, .F. ) ;
#306 = ORIENTED_EDGE ( 'NONE', *, *, #180, .F. ) ;
#307 = VERTEX_POINT ( 'NONE', #188 ) ;
#308 = EDGE_CURVE ( 'NONE', #63, #203, #51, .T. ) ;
#309 = APPROVAL_PERSON_ORGANIZATION ( #145, #115, #251 ) ;
#310 = ORIENTED_EDGE ( 'NONE', *, *, #261, .F. ) ;
#311 = CARTESIAN_POINT ( 'NONE',  ( 0.0000000000000000000, -25.00000000000000000, -25.00000000000000000 ) ) ;
#312 = EDGE_LOOP ( 'NONE', ( #49, #270, #281, #131 ) ) ;
#313 = DIRECTION ( 'NONE',  ( 0.7071067811865475700, 0.7071067811865475700, -0.0000000000000000000 ) ) ;
#314 = VERTEX_POINT ( 'NONE', #101 ) ;
#315 = CC_DESIGN_PERSON_AND_ORGANIZATION_ASSIGNMENT ( #139, #76, ( #106 ) ) ;
#316 = CARTESIAN_POINT ( 'NONE',  ( 0.0000000000000000000, 0.0000000000000000000, 25.00000000000000000 ) ) ;
#317 = DIRECTION ( 'NONE',  ( 0.7071067811865474600, -0.7071067811865474600, 0.0000000000000000000 ) ) ;
#318 = DIRECTION ( 'NONE',  ( 1.000000000000000000, 0.0000000000000000000, 0.0000000000000000000 ) ) ;
#319 = PERSON_AND_ORGANIZATION ( #153, #2 ) ;
#320 = VECTOR ( 'NONE', #248, 1000.000000000000000 ) ;
#321 = PERSON_AND_ORGANIZATION_ROLE ( 'creator' ) ;
ENDSEC;
END-ISO-10303-21;
