ISO-10303-21;
HEADER;
FILE_DESCRIPTION (( 'STEP AP203' ),
    '1' );
FILE_NAME ('Web Model 43890_43890.step',
    '2019-01-28T19:03:21',
    ( '' ),
    ( '' ),
    'SwSTEP 2.0',
    'SolidWorks 2016',
    '' );
FILE_SCHEMA (( 'CONFIG_CONTROL_DESIGN' ));
ENDSEC;

DATA;
#1 = CIRCLE ( 'NONE', #147, 6.250000000000000000 ) ;
#2 = CC_DESIGN_PERSON_AND_ORGANIZATION_ASSIGNMENT ( #149, #100, ( #101 ) ) ;
#3 = LOCAL_TIME ( 14, 3, 21.00000000000000000, #110 ) ;
#4 = ORIENTED_EDGE ( 'NONE', *, *, #105, .F. ) ;
#5 = CARTESIAN_POINT ( 'NONE',  ( 0.0000000000000000000, 0.0000000000000000000, 0.8750000000000000000 ) ) ;
#6 = APPROVAL ( #58, 'UNSPECIFIED' ) ;
#7 =( NAMED_UNIT ( * ) PLANE_ANGLE_UNIT ( ) SI_UNIT ( $, .RADIAN. ) );
#8 = DIRECTION ( 'NONE',  ( 0.0000000000000000000, 0.0000000000000000000, 1.000000000000000000 ) ) ;
#9 = CC_DESIGN_SECURITY_CLASSIFICATION ( #112, ( #35 ) ) ;
#10 = FACE_OUTER_BOUND ( 'NONE', #109, .T. ) ;
#11 = APPROVAL_STATUS ( 'not_yet_approved' ) ;
#12 = AXIS2_PLACEMENT_3D ( 'NONE', #33, #142, #123 ) ;
#13 = CLOSED_SHELL ( 'NONE', ( #103, #72, #86, #90 ) ) ;
#14 = DATE_AND_TIME ( #108, #150 ) ;
#15 = ORIENTED_EDGE ( 'NONE', *, *, #42, .F. ) ;
#16 = CC_DESIGN_APPROVAL ( #6, ( #56 ) ) ;
#17 = ADVANCED_BREP_SHAPE_REPRESENTATION ( 'Web Model 43890_43890', ( #141, #160 ), #122 ) ;
#18 = LOCAL_TIME ( 14, 3, 21.00000000000000000, #148 ) ;
#19 = CARTESIAN_POINT ( 'NONE',  ( 0.0000000000000000000, 0.0000000000000000000, -0.8750000000000000000 ) ) ;
#20 =( NAMED_UNIT ( * ) SI_UNIT ( $, .STERADIAN. ) SOLID_ANGLE_UNIT ( ) );
#21 = APPLICATION_CONTEXT ( 'configuration controlled 3d designs of mechanical parts and assemblies' ) ;
#22 = DIRECTION ( 'NONE',  ( 1.000000000000000000, 0.0000000000000000000, 0.0000000000000000000 ) ) ;
#23 = SHAPE_DEFINITION_REPRESENTATION ( #152, #17 ) ;
#24 = ORIENTED_EDGE ( 'NONE', *, *, #42, .T. ) ;
#25 = PERSON_AND_ORGANIZATION_ROLE ( 'classification_officer' ) ;
#26 = PERSON_AND_ORGANIZATION_ROLE ( 'design_supplier' ) ;
#27 = CC_DESIGN_DATE_AND_TIME_ASSIGNMENT ( #66, #107, ( #56 ) ) ;
#28 = FACE_OUTER_BOUND ( 'NONE', #171, .T. ) ;
#29 = LINE ( 'NONE', #47, #44 ) ;
#30 = AXIS2_PLACEMENT_3D ( 'NONE', #19, #127, #139 ) ;
#31 = ORGANIZATION ( 'UNSPECIFIED', 'UNSPECIFIED', '' ) ;
#32 = ORIENTED_EDGE ( 'NONE', *, *, #79, .F. ) ;
#33 = CARTESIAN_POINT ( 'NONE',  ( 0.0000000000000000000, 0.0000000000000000000, 0.8750000000000000000 ) ) ;
#34 = APPLICATION_CONTEXT ( 'configuration controlled 3d designs of mechanical parts and assemblies' ) ;
#35 = PRODUCT_DEFINITION_FORMATION_WITH_SPECIFIED_SOURCE ( 'ANY', '', #101, .NOT_KNOWN. ) ;
#36 = CARTESIAN_POINT ( 'NONE',  ( 0.0000000000000000000, 0.0000000000000000000, -0.8750000000000000000 ) ) ;
#37 = CALENDAR_DATE ( 2019, 28, 1 ) ;
#38 = PERSON_AND_ORGANIZATION ( #55, #31 ) ;
#39 = ORIENTED_EDGE ( 'NONE', *, *, #125, .F. ) ;
#40 = CC_DESIGN_APPROVAL ( #119, ( #112 ) ) ;
#41 = CYLINDRICAL_SURFACE ( 'NONE', #45, 6.250000000000000000 ) ;
#42 = EDGE_CURVE ( 'NONE', #144, #137, #80, .T. ) ;
#43 = ORIENTED_EDGE ( 'NONE', *, *, #65, .F. ) ;
#44 = VECTOR ( 'NONE', #104, 1000.000000000000000 ) ;
#45 = AXIS2_PLACEMENT_3D ( 'NONE', #88, #161, #99 ) ;
#46 = VERTEX_POINT ( 'NONE', #83 ) ;
#47 = CARTESIAN_POINT ( 'NONE',  ( -6.250000000000000000, 0.0000000000000000000, 0.8750000000000000000 ) ) ;
#48 = UNCERTAINTY_MEASURE_WITH_UNIT (LENGTH_MEASURE( 1.000000000000000100E-005 ), #113, 'distance_accuracy_value', 'NONE');
#49 = APPLICATION_PROTOCOL_DEFINITION ( 'international standard', 'config_control_design', 1994, #21 ) ;
#50 = APPROVAL_PERSON_ORGANIZATION ( #89, #6, #146 ) ;
#51 = LINE ( 'NONE', #134, #164 ) ;
#52 = EDGE_LOOP ( 'NONE', ( #98, #132 ) ) ;
#53 = PERSON_AND_ORGANIZATION ( #55, #31 ) ;
#54 = DIRECTION ( 'NONE',  ( -0.0000000000000000000, -0.0000000000000000000, -1.000000000000000000 ) ) ;
#55 = PERSON ( 'UNSPECIFIED', 'UNSPECIFIED', 'UNSPECIFIED', ('UNSPECIFIED'), ('UNSPECIFIED'), ('UNSPECIFIED') ) ;
#56 = PRODUCT_DEFINITION ( 'UNKNOWN', '', #35, #173 ) ;
#57 = CYLINDRICAL_SURFACE ( 'NONE', #12, 6.250000000000000000 ) ;
#58 = APPROVAL_STATUS ( 'not_yet_approved' ) ;
#59 = DIRECTION ( 'NONE',  ( 0.0000000000000000000, 0.0000000000000000000, 1.000000000000000000 ) ) ;
#60 = PLANE ( 'NONE',  #131 ) ;
#61 = ORIENTED_EDGE ( 'NONE', *, *, #125, .T. ) ;
#62 = APPROVAL_STATUS ( 'not_yet_approved' ) ;
#63 = DATE_AND_TIME ( #69, #3 ) ;
#64 = CIRCLE ( 'NONE', #169, 6.250000000000000000 ) ;
#65 = EDGE_CURVE ( 'NONE', #154, #137, #51, .T. ) ;
#66 = DATE_AND_TIME ( #68, #18 ) ;
#67 = CC_DESIGN_PERSON_AND_ORGANIZATION_ASSIGNMENT ( #53, #74, ( #56 ) ) ;
#68 = CALENDAR_DATE ( 2019, 28, 1 ) ;
#69 = CALENDAR_DATE ( 2019, 28, 1 ) ;
#70 = DIRECTION ( 'NONE',  ( 1.000000000000000000, 0.0000000000000000000, 0.0000000000000000000 ) ) ;
#71 = PERSON_AND_ORGANIZATION ( #55, #31 ) ;
#72 = ADVANCED_FACE ( 'NONE', ( #10 ), #57, .T. ) ;
#73 = SECURITY_CLASSIFICATION_LEVEL ( 'unclassified' ) ;
#74 = PERSON_AND_ORGANIZATION_ROLE ( 'creator' ) ;
#75 = CC_DESIGN_APPROVAL ( #92, ( #35 ) ) ;
#76 = CC_DESIGN_PERSON_AND_ORGANIZATION_ASSIGNMENT ( #77, #26, ( #35 ) ) ;
#77 = PERSON_AND_ORGANIZATION ( #55, #31 ) ;
#78 = FACE_OUTER_BOUND ( 'NONE', #94, .T. ) ;
#79 = EDGE_CURVE ( 'NONE', #46, #154, #82, .T. ) ;
#80 = CIRCLE ( 'NONE', #116, 6.250000000000000000 ) ;
#81 = APPROVAL_DATE_TIME ( #93, #92 ) ;
#82 = CIRCLE ( 'NONE', #158, 6.250000000000000000 ) ;
#83 = CARTESIAN_POINT ( 'NONE',  ( -6.250000000000000000, 0.0000000000000000000, 0.8750000000000000000 ) ) ;
#84 = PLANE ( 'NONE',  #30 ) ;
#85 = CARTESIAN_POINT ( 'NONE',  ( 0.0000000000000000000, 0.0000000000000000000, 0.0000000000000000000 ) ) ;
#86 = ADVANCED_FACE ( 'NONE', ( #151 ), #60, .T. ) ;
#87 = DIRECTION ( 'NONE',  ( 0.0000000000000000000, 0.0000000000000000000, 1.000000000000000000 ) ) ;
#88 = CARTESIAN_POINT ( 'NONE',  ( 0.0000000000000000000, 0.0000000000000000000, 0.8750000000000000000 ) ) ;
#89 = PERSON_AND_ORGANIZATION ( #55, #31 ) ;
#90 = ADVANCED_FACE ( 'NONE', ( #78 ), #84, .F. ) ;
#91 = ORIENTED_EDGE ( 'NONE', *, *, #162, .T. ) ;
#92 = APPROVAL ( #62, 'UNSPECIFIED' ) ;
#93 = DATE_AND_TIME ( #37, #120 ) ;
#94 = EDGE_LOOP ( 'NONE', ( #15, #157 ) ) ;
#95 = CC_DESIGN_PERSON_AND_ORGANIZATION_ASSIGNMENT ( #143, #25, ( #112 ) ) ;
#96 = CALENDAR_DATE ( 2019, 28, 1 ) ;
#97 = CARTESIAN_POINT ( 'NONE',  ( 6.250000000000000000, 7.654042494670957600E-016, -0.8750000000000000000 ) ) ;
#98 = ORIENTED_EDGE ( 'NONE', *, *, #79, .T. ) ;
#99 = DIRECTION ( 'NONE',  ( -1.000000000000000000, 0.0000000000000000000, 0.0000000000000000000 ) ) ;
#100 = PERSON_AND_ORGANIZATION_ROLE ( 'design_owner' ) ;
#101 = PRODUCT ( 'Web Model 43890_43890', 'Web Model 43890_43890', '', ( #136 ) ) ;
#102 = APPROVAL_DATE_TIME ( #14, #6 ) ;
#103 = ADVANCED_FACE ( 'NONE', ( #28 ), #41, .T. ) ;
#104 = DIRECTION ( 'NONE',  ( -0.0000000000000000000, -0.0000000000000000000, -1.000000000000000000 ) ) ;
#105 = EDGE_CURVE ( 'NONE', #154, #46, #64, .T. ) ;
#106 = APPROVAL_PERSON_ORGANIZATION ( #156, #92, #159 ) ;
#107 = DATE_TIME_ROLE ( 'creation_date' ) ;
#108 = CALENDAR_DATE ( 2019, 28, 1 ) ;
#109 = EDGE_LOOP ( 'NONE', ( #43, #32, #61, #24 ) ) ;
#110 = COORDINATED_UNIVERSAL_TIME_OFFSET ( 5, 0, .BEHIND. ) ;
#111 = CARTESIAN_POINT ( 'NONE',  ( 0.0000000000000000000, 0.0000000000000000000, 0.8750000000000000000 ) ) ;
#112 = SECURITY_CLASSIFICATION ( '', '', #73 ) ;
#113 =( LENGTH_UNIT ( ) NAMED_UNIT ( * ) SI_UNIT ( .MILLI., .METRE. ) );
#114 = APPROVAL_DATE_TIME ( #163, #119 ) ;
#115 = CARTESIAN_POINT ( 'NONE',  ( 6.250000000000000000, 7.654042494670957600E-016, 0.8750000000000000000 ) ) ;
#116 = AXIS2_PLACEMENT_3D ( 'NONE', #165, #8, #168 ) ;
#117 = CARTESIAN_POINT ( 'NONE',  ( 0.0000000000000000000, 0.0000000000000000000, 0.8750000000000000000 ) ) ;
#118 = APPROVAL_ROLE ( '' ) ;
#119 = APPROVAL ( #11, 'UNSPECIFIED' ) ;
#120 = LOCAL_TIME ( 14, 3, 21.00000000000000000, #128 ) ;
#121 = ORIENTED_EDGE ( 'NONE', *, *, #65, .T. ) ;
#122 =( GEOMETRIC_REPRESENTATION_CONTEXT ( 3 ) GLOBAL_UNCERTAINTY_ASSIGNED_CONTEXT ( ( #48 ) ) GLOBAL_UNIT_ASSIGNED_CONTEXT ( ( #113, #7, #20 ) ) REPRESENTATION_CONTEXT ( 'NONE', 'WORKASPACE' ) );
#123 = DIRECTION ( 'NONE',  ( -1.000000000000000000, 0.0000000000000000000, 0.0000000000000000000 ) ) ;
#124 = DIRECTION ( 'NONE',  ( 0.0000000000000000000, 0.0000000000000000000, 1.000000000000000000 ) ) ;
#125 = EDGE_CURVE ( 'NONE', #46, #144, #29, .T. ) ;
#126 = DIRECTION ( 'NONE',  ( 0.0000000000000000000, 0.0000000000000000000, 1.000000000000000000 ) ) ;
#127 = DIRECTION ( 'NONE',  ( 0.0000000000000000000, 0.0000000000000000000, 1.000000000000000000 ) ) ;
#128 = COORDINATED_UNIVERSAL_TIME_OFFSET ( 5, 0, .BEHIND. ) ;
#129 = CC_DESIGN_PERSON_AND_ORGANIZATION_ASSIGNMENT ( #71, #172, ( #35 ) ) ;
#130 = DATE_TIME_ROLE ( 'classification_date' ) ;
#131 = AXIS2_PLACEMENT_3D ( 'NONE', #117, #167, #138 ) ;
#132 = ORIENTED_EDGE ( 'NONE', *, *, #105, .T. ) ;
#133 = COORDINATED_UNIVERSAL_TIME_OFFSET ( 5, 0, .BEHIND. ) ;
#134 = CARTESIAN_POINT ( 'NONE',  ( 6.250000000000000000, 7.654042494670957600E-016, 0.8750000000000000000 ) ) ;
#135 = LOCAL_TIME ( 14, 3, 21.00000000000000000, #133 ) ;
#136 = MECHANICAL_CONTEXT ( 'NONE', #34, 'mechanical' ) ;
#137 = VERTEX_POINT ( 'NONE', #97 ) ;
#138 = DIRECTION ( 'NONE',  ( 1.000000000000000000, 0.0000000000000000000, -0.0000000000000000000 ) ) ;
#139 = DIRECTION ( 'NONE',  ( 1.000000000000000000, 0.0000000000000000000, -0.0000000000000000000 ) ) ;
#140 = DIRECTION ( 'NONE',  ( 1.000000000000000000, 0.0000000000000000000, 0.0000000000000000000 ) ) ;
#141 = MANIFOLD_SOLID_BREP ( 'Boss-Extrude1', #13 ) ;
#142 = DIRECTION ( 'NONE',  ( -0.0000000000000000000, -0.0000000000000000000, -1.000000000000000000 ) ) ;
#143 = PERSON_AND_ORGANIZATION ( #55, #31 ) ;
#144 = VERTEX_POINT ( 'NONE', #166 ) ;
#145 = CC_DESIGN_DATE_AND_TIME_ASSIGNMENT ( #63, #130, ( #112 ) ) ;
#146 = APPROVAL_ROLE ( '' ) ;
#147 = AXIS2_PLACEMENT_3D ( 'NONE', #36, #124, #22 ) ;
#148 = COORDINATED_UNIVERSAL_TIME_OFFSET ( 5, 0, .BEHIND. ) ;
#149 = PERSON_AND_ORGANIZATION ( #55, #31 ) ;
#150 = LOCAL_TIME ( 14, 3, 21.00000000000000000, #174 ) ;
#151 = FACE_OUTER_BOUND ( 'NONE', #52, .T. ) ;
#152 = PRODUCT_DEFINITION_SHAPE ( 'NONE', 'NONE',  #56 ) ;
#153 = DIRECTION ( 'NONE',  ( 1.000000000000000000, 0.0000000000000000000, 0.0000000000000000000 ) ) ;
#154 = VERTEX_POINT ( 'NONE', #115 ) ;
#155 = APPLICATION_PROTOCOL_DEFINITION ( 'international standard', 'config_control_design', 1994, #34 ) ;
#156 = PERSON_AND_ORGANIZATION ( #55, #31 ) ;
#157 = ORIENTED_EDGE ( 'NONE', *, *, #162, .F. ) ;
#158 = AXIS2_PLACEMENT_3D ( 'NONE', #5, #87, #70 ) ;
#159 = APPROVAL_ROLE ( '' ) ;
#160 = AXIS2_PLACEMENT_3D ( 'NONE', #85, #126, #140 ) ;
#161 = DIRECTION ( 'NONE',  ( -0.0000000000000000000, -0.0000000000000000000, -1.000000000000000000 ) ) ;
#162 = EDGE_CURVE ( 'NONE', #137, #144, #1, .T. ) ;
#163 = DATE_AND_TIME ( #96, #135 ) ;
#164 = VECTOR ( 'NONE', #54, 1000.000000000000000 ) ;
#165 = CARTESIAN_POINT ( 'NONE',  ( 0.0000000000000000000, 0.0000000000000000000, -0.8750000000000000000 ) ) ;
#166 = CARTESIAN_POINT ( 'NONE',  ( -6.250000000000000000, 0.0000000000000000000, -0.8750000000000000000 ) ) ;
#167 = DIRECTION ( 'NONE',  ( 0.0000000000000000000, 0.0000000000000000000, 1.000000000000000000 ) ) ;
#168 = DIRECTION ( 'NONE',  ( 1.000000000000000000, 0.0000000000000000000, 0.0000000000000000000 ) ) ;
#169 = AXIS2_PLACEMENT_3D ( 'NONE', #111, #59, #153 ) ;
#170 = PRODUCT_RELATED_PRODUCT_CATEGORY ( 'detail', '', ( #101 ) ) ;
#171 = EDGE_LOOP ( 'NONE', ( #4, #121, #91, #39 ) ) ;
#172 = PERSON_AND_ORGANIZATION_ROLE ( 'creator' ) ;
#173 = DESIGN_CONTEXT ( 'detailed design', #21, 'design' ) ;
#174 = COORDINATED_UNIVERSAL_TIME_OFFSET ( 5, 0, .BEHIND. ) ;
#175 = APPROVAL_PERSON_ORGANIZATION ( #38, #119, #118 ) ;
ENDSEC;
END-ISO-10303-21;
