ISO-10303-21;
HEADER;
FILE_DESCRIPTION (( 'STEP AP203' ),
    '1' );
FILE_NAME ('Web Model 41021MX_15768.step',
    '2020-10-19T17:14:51',
    ( '' ),
    ( '' ),
    'SwSTEP 2.0',
    'SolidWorks 2018',
    '' );
FILE_SCHEMA (( 'CONFIG_CONTROL_DESIGN' ));
ENDSEC;

DATA;
#1 = LINE ( 'NONE', #64, #106 ) ;
#2 = COORDINATED_UNIVERSAL_TIME_OFFSET ( 5, 0, .BEHIND. ) ;
#3 = CC_DESIGN_APPROVAL ( #19, ( #198 ) ) ;
#4 = CARTESIAN_POINT ( 'NONE',  ( 12.49999999999999645, -6.249999999999998224, 3.000000000000000000 ) ) ;
#5 = CARTESIAN_POINT ( 'NONE',  ( 12.49999999999999645, 6.250000000000000000, 3.000000000000000000 ) ) ;
#6 = VERTEX_POINT ( 'NONE', #205 ) ;
#7 = DIRECTION ( 'NONE',  ( 1.000000000000000000, 0.0000000000000000000, -0.0000000000000000000 ) ) ;
#8 = PLANE ( 'NONE',  #185 ) ;
#9 = VECTOR ( 'NONE', #59, 1000.000000000000000 ) ;
#10 = DATE_TIME_ROLE ( 'creation_date' ) ;
#11 = LINE ( 'NONE', #173, #201 ) ;
#12 = EDGE_LOOP ( 'NONE', ( #156, #235, #79, #71 ) ) ;
#13 = EDGE_CURVE ( 'NONE', #182, #50, #54, .T. ) ;
#14 = LOCAL_TIME ( 13, 14, 51.00000000000000000, #138 ) ;
#15 = CALENDAR_DATE ( 2020, 19, 10 ) ;
#16 = EDGE_CURVE ( 'NONE', #6, #28, #111, .T. ) ;
#17 = ADVANCED_FACE ( 'NONE', ( #141 ), #163, .F. ) ;
#18 = LOCAL_TIME ( 13, 14, 51.00000000000000000, #103 ) ;
#19 = APPROVAL ( #102, 'UNSPECIFIED' ) ;
#20 = ORIENTED_EDGE ( 'NONE', *, *, #119, .T. ) ;
#21 = CARTESIAN_POINT ( 'NONE',  ( 12.49999999999999645, -6.249999999999998224, -3.000000000000000000 ) ) ;
#22 = CARTESIAN_POINT ( 'NONE',  ( 12.49999999999999645, 6.250000000000000000, -3.000000000000000000 ) ) ;
#23 = VERTEX_POINT ( 'NONE', #76 ) ;
#24 = MECHANICAL_CONTEXT ( 'NONE', #105, 'mechanical' ) ;
#25 = EDGE_CURVE ( 'NONE', #221, #34, #125, .T. ) ;
#26 = DESIGN_CONTEXT ( 'detailed design', #69, 'design' ) ;
#27 = SHAPE_DEFINITION_REPRESENTATION ( #188, #226 ) ;
#28 = VERTEX_POINT ( 'NONE', #228 ) ;
#29 = APPLICATION_PROTOCOL_DEFINITION ( 'international standard', 'config_control_design', 1994, #69 ) ;
#30 = AXIS2_PLACEMENT_3D ( 'NONE', #115, #175, #44 ) ;
#31 = VECTOR ( 'NONE', #227, 1000.000000000000000 ) ;
#32 = ORIENTED_EDGE ( 'NONE', *, *, #93, .T. ) ;
#33 = AXIS2_PLACEMENT_3D ( 'NONE', #5, #117, #97 ) ;
#34 = VERTEX_POINT ( 'NONE', #187 ) ;
#35 = ORGANIZATION ( 'UNSPECIFIED', 'UNSPECIFIED', '' ) ;
#36 = EDGE_LOOP ( 'NONE', ( #212, #190, #77, #67 ) ) ;
#37 = ADVANCED_FACE ( 'NONE', ( #144 ), #211, .F. ) ;
#38 = EDGE_CURVE ( 'NONE', #23, #147, #159, .T. ) ;
#39 = VECTOR ( 'NONE', #63, 1000.000000000000000 ) ;
#40 = DIRECTION ( 'NONE',  ( 0.0000000000000000000, 1.000000000000000000, 0.0000000000000000000 ) ) ;
#41 = CARTESIAN_POINT ( 'NONE',  ( 0.0000000000000000000, 0.0000000000000000000, 3.000000000000000000 ) ) ;
#42 = VECTOR ( 'NONE', #169, 1000.000000000000000 ) ;
#43 = EDGE_CURVE ( 'NONE', #6, #221, #146, .T. ) ;
#44 = DIRECTION ( 'NONE',  ( 0.0000000000000000000, 0.0000000000000000000, 1.000000000000000000 ) ) ;
#45 = LINE ( 'NONE', #137, #140 ) ;
#46 = APPROVAL_ROLE ( '' ) ;
#47 = APPROVAL_ROLE ( '' ) ;
#48 = CC_DESIGN_PERSON_AND_ORGANIZATION_ASSIGNMENT ( #237, #176, ( #207 ) ) ;
#49 = FACE_OUTER_BOUND ( 'NONE', #174, .T. ) ;
#50 = VERTEX_POINT ( 'NONE', #80 ) ;
#51 = LOCAL_TIME ( 13, 14, 51.00000000000000000, #88 ) ;
#52 = AXIS2_PLACEMENT_3D ( 'NONE', #4, #172, #145 ) ;
#53 = VECTOR ( 'NONE', #114, 1000.000000000000000 ) ;
#54 = LINE ( 'NONE', #164, #199 ) ;
#55 = EDGE_CURVE ( 'NONE', #182, #23, #113, .T. ) ;
#56 = ADVANCED_FACE ( 'NONE', ( #180 ), #8, .F. ) ;
#57 = AXIS2_PLACEMENT_3D ( 'NONE', #112, #132, #129 ) ;
#58 = ORIENTED_EDGE ( 'NONE', *, *, #13, .F. ) ;
#59 = DIRECTION ( 'NONE',  ( -1.000000000000000000, -6.938893903907228378E-17, 0.0000000000000000000 ) ) ;
#60 = APPROVAL ( #152, 'UNSPECIFIED' ) ;
#61 = PERSON_AND_ORGANIZATION ( #236, #35 ) ;
#62 = ORIENTED_EDGE ( 'NONE', *, *, #233, .T. ) ;
#63 = DIRECTION ( 'NONE',  ( -0.0000000000000000000, -0.0000000000000000000, -1.000000000000000000 ) ) ;
#64 = CARTESIAN_POINT ( 'NONE',  ( -12.50000000000000355, 6.249999999999998224, 3.000000000000000000 ) ) ;
#65 = CARTESIAN_POINT ( 'NONE',  ( -12.50000000000000355, -6.250000000000001776, -3.000000000000000000 ) ) ;
#66 = DIRECTION ( 'NONE',  ( 0.0000000000000000000, -0.0000000000000000000, 1.000000000000000000 ) ) ;
#67 = ORIENTED_EDGE ( 'NONE', *, *, #225, .T. ) ;
#68 = CC_DESIGN_DATE_AND_TIME_ASSIGNMENT ( #82, #10, ( #165 ) ) ;
#69 = APPLICATION_CONTEXT ( 'configuration controlled 3d designs of mechanical parts and assemblies' ) ;
#70 = APPROVAL_PERSON_ORGANIZATION ( #234, #60, #46 ) ;
#71 = ORIENTED_EDGE ( 'NONE', *, *, #43, .T. ) ;
#72 =( GEOMETRIC_REPRESENTATION_CONTEXT ( 3 ) GLOBAL_UNCERTAINTY_ASSIGNED_CONTEXT ( ( #73 ) ) GLOBAL_UNIT_ASSIGNED_CONTEXT ( ( #139, #213, #120 ) ) REPRESENTATION_CONTEXT ( 'NONE', 'WORKASPACE' ) );
#73 = UNCERTAINTY_MEASURE_WITH_UNIT (LENGTH_MEASURE( 1.000000000000000082E-05 ), #139, 'distance_accuracy_value', 'NONE');
#74 = LOCAL_TIME ( 13, 14, 51.00000000000000000, #2 ) ;
#75 = APPROVAL ( #157, 'UNSPECIFIED' ) ;
#76 = CARTESIAN_POINT ( 'NONE',  ( -12.50000000000000355, -6.250000000000001776, -3.000000000000000000 ) ) ;
#77 = ORIENTED_EDGE ( 'NONE', *, *, #233, .F. ) ;
#78 = DIRECTION ( 'NONE',  ( 0.0000000000000000000, 0.0000000000000000000, 1.000000000000000000 ) ) ;
#79 = ORIENTED_EDGE ( 'NONE', *, *, #16, .F. ) ;
#80 = CARTESIAN_POINT ( 'NONE',  ( 12.49999999999999645, -6.249999999999998224, 3.000000000000000000 ) ) ;
#81 = AXIS2_PLACEMENT_3D ( 'NONE', #41, #66, #7 ) ;
#82 = DATE_AND_TIME ( #15, #51 ) ;
#83 = ORIENTED_EDGE ( 'NONE', *, *, #107, .F. ) ;
#84 = DIRECTION ( 'NONE',  ( 0.0000000000000000000, 1.000000000000000000, 0.0000000000000000000 ) ) ;
#85 = AXIS2_PLACEMENT_3D ( 'NONE', #191, #78, #232 ) ;
#86 = PERSON_AND_ORGANIZATION_ROLE ( 'design_owner' ) ;
#87 = APPLICATION_PROTOCOL_DEFINITION ( 'international standard', 'config_control_design', 1994, #105 ) ;
#88 = COORDINATED_UNIVERSAL_TIME_OFFSET ( 5, 0, .BEHIND. ) ;
#89 = MANIFOLD_SOLID_BREP ( 'Boss-Extrude1', #223 ) ;
#90 = FACE_OUTER_BOUND ( 'NONE', #122, .T. ) ;
#91 = CC_DESIGN_SECURITY_CLASSIFICATION ( #198, ( #207 ) ) ;
#92 = ORIENTED_EDGE ( 'NONE', *, *, #13, .T. ) ;
#93 = EDGE_CURVE ( 'NONE', #147, #221, #99, .T. ) ;
#94 = CC_DESIGN_PERSON_AND_ORGANIZATION_ASSIGNMENT ( #197, #86, ( #109 ) ) ;
#95 = PERSON_AND_ORGANIZATION ( #236, #35 ) ;
#96 = CARTESIAN_POINT ( 'NONE',  ( 12.49999999999999645, 6.250000000000000000, 3.000000000000000000 ) ) ;
#97 = DIRECTION ( 'NONE',  ( 1.000000000000000000, 6.938893903907227145E-17, 0.0000000000000000000 ) ) ;
#98 = PLANE ( 'NONE',  #52 ) ;
#99 = LINE ( 'NONE', #21, #189 ) ;
#100 = DIRECTION ( 'NONE',  ( -0.0000000000000000000, -0.0000000000000000000, -1.000000000000000000 ) ) ;
#101 = CARTESIAN_POINT ( 'NONE',  ( 12.49999999999999645, -6.249999999999998224, -3.000000000000000000 ) ) ;
#102 = APPROVAL_STATUS ( 'not_yet_approved' ) ;
#103 = COORDINATED_UNIVERSAL_TIME_OFFSET ( 5, 0, .BEHIND. ) ;
#104 = PERSON_AND_ORGANIZATION_ROLE ( 'classification_officer' ) ;
#105 = APPLICATION_CONTEXT ( 'configuration controlled 3d designs of mechanical parts and assemblies' ) ;
#106 = VECTOR ( 'NONE', #100, 1000.000000000000000 ) ;
#107 = EDGE_CURVE ( 'NONE', #34, #23, #167, .T. ) ;
#108 = EDGE_LOOP ( 'NONE', ( #32, #220, #206, #20 ) ) ;
#109 = PRODUCT ( 'Web Model 41021MX_15768', 'Web Model 41021MX_15768', '', ( #24 ) ) ;
#110 = DATE_AND_TIME ( #116, #14 ) ;
#111 = LINE ( 'NONE', #96, #134 ) ;
#112 = CARTESIAN_POINT ( 'NONE',  ( 0.0000000000000000000, 0.0000000000000000000, -3.000000000000000000 ) ) ;
#113 = LINE ( 'NONE', #135, #39 ) ;
#114 = DIRECTION ( 'NONE',  ( -0.0000000000000000000, -0.0000000000000000000, -1.000000000000000000 ) ) ;
#115 = CARTESIAN_POINT ( 'NONE',  ( 12.49999999999999645, -6.249999999999998224, 3.000000000000000000 ) ) ;
#116 = CALENDAR_DATE ( 2020, 19, 10 ) ;
#117 = DIRECTION ( 'NONE',  ( 6.938893903907227145E-17, -1.000000000000000000, 0.0000000000000000000 ) ) ;
#118 = ORIENTED_EDGE ( 'NONE', *, *, #25, .F. ) ;
#119 = EDGE_CURVE ( 'NONE', #50, #147, #203, .T. ) ;
#120 =( NAMED_UNIT ( * ) SI_UNIT ( $, .STERADIAN. ) SOLID_ANGLE_UNIT ( ) );
#121 = APPROVAL_PERSON_ORGANIZATION ( #61, #75, #154 ) ;
#122 = EDGE_LOOP ( 'NONE', ( #160, #162, #58, #215 ) ) ;
#123 = DIRECTION ( 'NONE',  ( -0.0000000000000000000, -1.000000000000000000, -0.0000000000000000000 ) ) ;
#124 = EDGE_CURVE ( 'NONE', #50, #6, #11, .T. ) ;
#125 = LINE ( 'NONE', #230, #9 ) ;
#126 = ORIENTED_EDGE ( 'NONE', *, *, #16, .T. ) ;
#127 = PERSON_AND_ORGANIZATION ( #236, #35 ) ;
#128 = FACE_OUTER_BOUND ( 'NONE', #151, .T. ) ;
#129 = DIRECTION ( 'NONE',  ( 1.000000000000000000, 0.0000000000000000000, -0.0000000000000000000 ) ) ;
#130 = DIRECTION ( 'NONE',  ( 1.000000000000000000, 0.0000000000000000000, 0.0000000000000000000 ) ) ;
#131 = CC_DESIGN_APPROVAL ( #75, ( #207 ) ) ;
#132 = DIRECTION ( 'NONE',  ( 0.0000000000000000000, -0.0000000000000000000, 1.000000000000000000 ) ) ;
#133 = PERSON_AND_ORGANIZATION ( #236, #35 ) ;
#134 = VECTOR ( 'NONE', #222, 1000.000000000000000 ) ;
#135 = CARTESIAN_POINT ( 'NONE',  ( -12.50000000000000355, -6.250000000000001776, 3.000000000000000000 ) ) ;
#136 = DIRECTION ( 'NONE',  ( 0.0000000000000000000, 0.0000000000000000000, -1.000000000000000000 ) ) ;
#137 = CARTESIAN_POINT ( 'NONE',  ( -12.50000000000000355, -6.250000000000001776, 3.000000000000000000 ) ) ;
#138 = COORDINATED_UNIVERSAL_TIME_OFFSET ( 5, 0, .BEHIND. ) ;
#139 =( LENGTH_UNIT ( ) NAMED_UNIT ( * ) SI_UNIT ( .MILLI., .METRE. ) );
#140 = VECTOR ( 'NONE', #123, 1000.000000000000000 ) ;
#141 = FACE_OUTER_BOUND ( 'NONE', #12, .T. ) ;
#142 = APPROVAL_DATE_TIME ( #196, #75 ) ;
#143 = CC_DESIGN_DATE_AND_TIME_ASSIGNMENT ( #110, #193, ( #198 ) ) ;
#144 = FACE_OUTER_BOUND ( 'NONE', #108, .T. ) ;
#145 = DIRECTION ( 'NONE',  ( -1.000000000000000000, -1.387778780781445429E-16, 0.0000000000000000000 ) ) ;
#146 = LINE ( 'NONE', #170, #31 ) ;
#147 = VERTEX_POINT ( 'NONE', #224 ) ;
#148 = CARTESIAN_POINT ( 'NONE',  ( -12.50000000000000355, -6.250000000000001776, 3.000000000000000000 ) ) ;
#149 = PLANE ( 'NONE',  #81 ) ;
#150 = APPROVAL_DATE_TIME ( #179, #19 ) ;
#151 = EDGE_LOOP ( 'NONE', ( #62, #92, #177, #126 ) ) ;
#152 = APPROVAL_STATUS ( 'not_yet_approved' ) ;
#153 = CALENDAR_DATE ( 2020, 19, 10 ) ;
#154 = APPROVAL_ROLE ( '' ) ;
#155 = VECTOR ( 'NONE', #186, 1000.000000000000000 ) ;
#156 = ORIENTED_EDGE ( 'NONE', *, *, #25, .T. ) ;
#157 = APPROVAL_STATUS ( 'not_yet_approved' ) ;
#158 = APPROVAL_PERSON_ORGANIZATION ( #127, #19, #47 ) ;
#159 = LINE ( 'NONE', #101, #155 ) ;
#160 = ORIENTED_EDGE ( 'NONE', *, *, #38, .T. ) ;
#161 = ADVANCED_FACE ( 'NONE', ( #90 ), #98, .F. ) ;
#162 = ORIENTED_EDGE ( 'NONE', *, *, #119, .F. ) ;
#163 = PLANE ( 'NONE',  #33 ) ;
#164 = CARTESIAN_POINT ( 'NONE',  ( 12.49999999999999645, -6.249999999999998224, 3.000000000000000000 ) ) ;
#165 = PRODUCT_DEFINITION ( 'UNKNOWN', '', #207, #26 ) ;
#166 = DIRECTION ( 'NONE',  ( 1.000000000000000000, 1.387778780781445676E-16, -0.0000000000000000000 ) ) ;
#167 = LINE ( 'NONE', #65, #42 ) ;
#168 = ORIENTED_EDGE ( 'NONE', *, *, #93, .F. ) ;
#169 = DIRECTION ( 'NONE',  ( -0.0000000000000000000, -1.000000000000000000, -0.0000000000000000000 ) ) ;
#170 = CARTESIAN_POINT ( 'NONE',  ( 12.49999999999999645, 6.250000000000000000, 3.000000000000000000 ) ) ;
#171 = CC_DESIGN_PERSON_AND_ORGANIZATION_ASSIGNMENT ( #184, #104, ( #198 ) ) ;
#172 = DIRECTION ( 'NONE',  ( -1.387778780781445429E-16, 1.000000000000000000, 0.0000000000000000000 ) ) ;
#173 = CARTESIAN_POINT ( 'NONE',  ( 12.49999999999999645, -6.249999999999998224, 3.000000000000000000 ) ) ;
#174 = EDGE_LOOP ( 'NONE', ( #83, #118, #168, #229 ) ) ;
#175 = DIRECTION ( 'NONE',  ( -1.000000000000000000, 0.0000000000000000000, 0.0000000000000000000 ) ) ;
#176 = PERSON_AND_ORGANIZATION_ROLE ( 'design_supplier' ) ;
#177 = ORIENTED_EDGE ( 'NONE', *, *, #124, .T. ) ;
#178 = CC_DESIGN_APPROVAL ( #60, ( #165 ) ) ;
#179 = DATE_AND_TIME ( #153, #217 ) ;
#180 = FACE_OUTER_BOUND ( 'NONE', #36, .T. ) ;
#181 = CALENDAR_DATE ( 2020, 19, 10 ) ;
#182 = VERTEX_POINT ( 'NONE', #148 ) ;
#183 = ADVANCED_FACE ( 'NONE', ( #128 ), #149, .T. ) ;
#184 = PERSON_AND_ORGANIZATION ( #236, #35 ) ;
#185 = AXIS2_PLACEMENT_3D ( 'NONE', #192, #130, #136 ) ;
#186 = DIRECTION ( 'NONE',  ( 1.000000000000000000, 1.387778780781445676E-16, -0.0000000000000000000 ) ) ;
#187 = CARTESIAN_POINT ( 'NONE',  ( -12.50000000000000355, 6.249999999999998224, -3.000000000000000000 ) ) ;
#188 = PRODUCT_DEFINITION_SHAPE ( 'NONE', 'NONE',  #165 ) ;
#189 = VECTOR ( 'NONE', #40, 1000.000000000000000 ) ;
#190 = ORIENTED_EDGE ( 'NONE', *, *, #55, .F. ) ;
#191 = CARTESIAN_POINT ( 'NONE',  ( 0.0000000000000000000, 0.0000000000000000000, 0.0000000000000000000 ) ) ;
#192 = CARTESIAN_POINT ( 'NONE',  ( -12.50000000000000355, -6.250000000000001776, 3.000000000000000000 ) ) ;
#193 = DATE_TIME_ROLE ( 'classification_date' ) ;
#194 = CC_DESIGN_PERSON_AND_ORGANIZATION_ASSIGNMENT ( #133, #231, ( #165 ) ) ;
#195 = SECURITY_CLASSIFICATION_LEVEL ( 'unclassified' ) ;
#196 = DATE_AND_TIME ( #208, #74 ) ;
#197 = PERSON_AND_ORGANIZATION ( #236, #35 ) ;
#198 = SECURITY_CLASSIFICATION ( '', '', #195 ) ;
#199 = VECTOR ( 'NONE', #166, 1000.000000000000000 ) ;
#200 = COORDINATED_UNIVERSAL_TIME_OFFSET ( 5, 0, .BEHIND. ) ;
#201 = VECTOR ( 'NONE', #84, 1000.000000000000000 ) ;
#202 = PRODUCT_RELATED_PRODUCT_CATEGORY ( 'detail', '', ( #109 ) ) ;
#203 = LINE ( 'NONE', #210, #53 ) ;
#204 = ADVANCED_FACE ( 'NONE', ( #49 ), #209, .F. ) ;
#205 = CARTESIAN_POINT ( 'NONE',  ( 12.49999999999999645, 6.250000000000000000, 3.000000000000000000 ) ) ;
#206 = ORIENTED_EDGE ( 'NONE', *, *, #124, .F. ) ;
#207 = PRODUCT_DEFINITION_FORMATION_WITH_SPECIFIED_SOURCE ( 'ANY', '', #109, .NOT_KNOWN. ) ;
#208 = CALENDAR_DATE ( 2020, 19, 10 ) ;
#209 = PLANE ( 'NONE',  #57 ) ;
#210 = CARTESIAN_POINT ( 'NONE',  ( 12.49999999999999645, -6.249999999999998224, 3.000000000000000000 ) ) ;
#211 = PLANE ( 'NONE',  #30 ) ;
#212 = ORIENTED_EDGE ( 'NONE', *, *, #107, .T. ) ;
#213 =( NAMED_UNIT ( * ) PLANE_ANGLE_UNIT ( ) SI_UNIT ( $, .RADIAN. ) );
#214 = APPROVAL_DATE_TIME ( #219, #60 ) ;
#215 = ORIENTED_EDGE ( 'NONE', *, *, #55, .T. ) ;
#216 = PERSON_AND_ORGANIZATION_ROLE ( 'creator' ) ;
#217 = LOCAL_TIME ( 13, 14, 51.00000000000000000, #200 ) ;
#218 = CC_DESIGN_PERSON_AND_ORGANIZATION_ASSIGNMENT ( #95, #216, ( #207 ) ) ;
#219 = DATE_AND_TIME ( #181, #18 ) ;
#220 = ORIENTED_EDGE ( 'NONE', *, *, #43, .F. ) ;
#221 = VERTEX_POINT ( 'NONE', #22 ) ;
#222 = DIRECTION ( 'NONE',  ( -1.000000000000000000, -6.938893903907228378E-17, 0.0000000000000000000 ) ) ;
#223 = CLOSED_SHELL ( 'NONE', ( #56, #161, #37, #17, #183, #204 ) ) ;
#224 = CARTESIAN_POINT ( 'NONE',  ( 12.49999999999999645, -6.249999999999998224, -3.000000000000000000 ) ) ;
#225 = EDGE_CURVE ( 'NONE', #28, #34, #1, .T. ) ;
#226 = ADVANCED_BREP_SHAPE_REPRESENTATION ( 'Web Model 41021MX_15768', ( #89, #85 ), #72 ) ;
#227 = DIRECTION ( 'NONE',  ( -0.0000000000000000000, -0.0000000000000000000, -1.000000000000000000 ) ) ;
#228 = CARTESIAN_POINT ( 'NONE',  ( -12.50000000000000355, 6.249999999999998224, 3.000000000000000000 ) ) ;
#229 = ORIENTED_EDGE ( 'NONE', *, *, #38, .F. ) ;
#230 = CARTESIAN_POINT ( 'NONE',  ( 12.49999999999999645, 6.250000000000000000, -3.000000000000000000 ) ) ;
#231 = PERSON_AND_ORGANIZATION_ROLE ( 'creator' ) ;
#232 = DIRECTION ( 'NONE',  ( 1.000000000000000000, 0.0000000000000000000, 0.0000000000000000000 ) ) ;
#233 = EDGE_CURVE ( 'NONE', #28, #182, #45, .T. ) ;
#234 = PERSON_AND_ORGANIZATION ( #236, #35 ) ;
#235 = ORIENTED_EDGE ( 'NONE', *, *, #225, .F. ) ;
#236 = PERSON ( 'UNSPECIFIED', 'UNSPECIFIED', 'UNSPECIFIED', ('UNSPECIFIED'), ('UNSPECIFIED'), ('UNSPECIFIED') ) ;
#237 = PERSON_AND_ORGANIZATION ( #236, #35 ) ;
ENDSEC;
END-ISO-10303-21;
