ISO-10303-21;
HEADER;
FILE_DESCRIPTION (( 'STEP AP203' ),
    '1' );
FILE_NAME ('Web Model 46458_18716.step',
    '2021-07-13T18:31:52',
    ( '' ),
    ( '' ),
    'SwSTEP 2.0',
    'SolidWorks 2018',
    '' );
FILE_SCHEMA (( 'CONFIG_CONTROL_DESIGN' ));
ENDSEC;

DATA;
#1 = ORIENTED_EDGE ( 'NONE', *, *, #39, .F. ) ;
#2 = PERSON_AND_ORGANIZATION ( #132, #30 ) ;
#3 = LOCAL_TIME ( 14, 31, 52.00000000000000000, #162 ) ;
#4 = PLANE ( 'NONE',  #9 ) ;
#5 = CIRCLE ( 'NONE', #15, 12.69999999999999929 ) ;
#6 = APPROVAL_ROLE ( '' ) ;
#7 = CARTESIAN_POINT ( 'NONE',  ( 0.7500000000000000000, 1.555301434917138433E-15, -12.69999999999999929 ) ) ;
#8 = ADVANCED_FACE ( 'NONE', ( #54 ), #42, .F. ) ;
#9 = AXIS2_PLACEMENT_3D ( 'NONE', #98, #21, #37 ) ;
#10 = APPROVAL ( #121, 'UNSPECIFIED' ) ;
#11 = EDGE_CURVE ( 'NONE', #173, #152, #103, .T. ) ;
#12 = CC_DESIGN_APPROVAL ( #128, ( #116 ) ) ;
#13 = VERTEX_POINT ( 'NONE', #32 ) ;
#14 = CC_DESIGN_SECURITY_CLASSIFICATION ( #55, ( #116 ) ) ;
#15 = AXIS2_PLACEMENT_3D ( 'NONE', #112, #38, #100 ) ;
#16 = CIRCLE ( 'NONE', #88, 12.69999999999999929 ) ;
#17 = ORIENTED_EDGE ( 'NONE', *, *, #47, .F. ) ;
#18 = DIRECTION ( 'NONE',  ( 0.000000000000000000, 0.000000000000000000, -1.000000000000000000 ) ) ;
#19 = CC_DESIGN_PERSON_AND_ORGANIZATION_ASSIGNMENT ( #159, #45, ( #52 ) ) ;
#20 = AXIS2_PLACEMENT_3D ( 'NONE', #145, #120, #156 ) ;
#21 = DIRECTION ( 'NONE',  ( 1.000000000000000000, 0.000000000000000000, 0.000000000000000000 ) ) ;
#22 = SECURITY_CLASSIFICATION_LEVEL ( 'unclassified' ) ;
#23 = DIRECTION ( 'NONE',  ( 0.000000000000000000, 0.000000000000000000, -1.000000000000000000 ) ) ;
#24 = CC_DESIGN_PERSON_AND_ORGANIZATION_ASSIGNMENT ( #62, #123, ( #116 ) ) ;
#25 = UNCERTAINTY_MEASURE_WITH_UNIT (LENGTH_MEASURE( 1.000000000000000082E-05 ), #139, 'distance_accuracy_value', 'NONE');
#26 = ORIENTED_EDGE ( 'NONE', *, *, #148, .T. ) ;
#27 = PERSON_AND_ORGANIZATION ( #132, #30 ) ;
#28 = COORDINATED_UNIVERSAL_TIME_OFFSET ( 5, 0, .BEHIND. ) ;
#29 = PERSON_AND_ORGANIZATION ( #132, #30 ) ;
#30 = ORGANIZATION ( 'UNSPECIFIED', 'UNSPECIFIED', '' ) ;
#31 = PERSON_AND_ORGANIZATION_ROLE ( 'creator' ) ;
#32 = CARTESIAN_POINT ( 'NONE',  ( -0.7500000000000000000, 0.000000000000000000, 12.69999999999999929 ) ) ;
#33 =( NAMED_UNIT ( * ) SI_UNIT ( $, .STERADIAN. ) SOLID_ANGLE_UNIT ( ) );
#34 = DIRECTION ( 'NONE',  ( 1.000000000000000000, 0.000000000000000000, 0.000000000000000000 ) ) ;
#35 = ORIENTED_EDGE ( 'NONE', *, *, #171, .F. ) ;
#36 = LOCAL_TIME ( 14, 31, 52.00000000000000000, #119 ) ;
#37 = DIRECTION ( 'NONE',  ( 0.000000000000000000, 0.000000000000000000, -1.000000000000000000 ) ) ;
#38 = DIRECTION ( 'NONE',  ( 1.000000000000000000, 0.000000000000000000, 0.000000000000000000 ) ) ;
#39 = EDGE_CURVE ( 'NONE', #65, #173, #56, .T. ) ;
#40 = ORIENTED_EDGE ( 'NONE', *, *, #39, .T. ) ;
#41 = APPROVAL_DATE_TIME ( #102, #160 ) ;
#42 = PLANE ( 'NONE',  #53 ) ;
#43 = SHAPE_DEFINITION_REPRESENTATION ( #76, #66 ) ;
#44 = CARTESIAN_POINT ( 'NONE',  ( 0.7500000000000000000, 0.000000000000000000, 0.000000000000000000 ) ) ;
#45 = PERSON_AND_ORGANIZATION_ROLE ( 'design_owner' ) ;
#46 = CARTESIAN_POINT ( 'NONE',  ( 0.7500000000000000000, 0.000000000000000000, 0.000000000000000000 ) ) ;
#47 = EDGE_CURVE ( 'NONE', #65, #13, #138, .T. ) ;
#48 = ORIENTED_EDGE ( 'NONE', *, *, #47, .T. ) ;
#49 = COORDINATED_UNIVERSAL_TIME_OFFSET ( 5, 0, .BEHIND. ) ;
#50 = CYLINDRICAL_SURFACE ( 'NONE', #64, 12.69999999999999929 ) ;
#51 = CC_DESIGN_PERSON_AND_ORGANIZATION_ASSIGNMENT ( #61, #96, ( #116 ) ) ;
#52 = PRODUCT ( 'Web Model 46458_18716', 'Web Model 46458_18716', '', ( #59 ) ) ;
#53 = AXIS2_PLACEMENT_3D ( 'NONE', #137, #70, #153 ) ;
#54 = FACE_OUTER_BOUND ( 'NONE', #72, .T. ) ;
#55 = SECURITY_CLASSIFICATION ( '', '', #22 ) ;
#56 = CIRCLE ( 'NONE', #80, 12.69999999999999929 ) ;
#57 = DIRECTION ( 'NONE',  ( 0.000000000000000000, 0.000000000000000000, 1.000000000000000000 ) ) ;
#58 = CIRCLE ( 'NONE', #78, 12.69999999999999929 ) ;
#59 = MECHANICAL_CONTEXT ( 'NONE', #107, 'mechanical' ) ;
#60 = EDGE_CURVE ( 'NONE', #152, #13, #16, .T. ) ;
#61 = PERSON_AND_ORGANIZATION ( #132, #30 ) ;
#62 = PERSON_AND_ORGANIZATION ( #132, #30 ) ;
#63 = DESIGN_CONTEXT ( 'detailed design', #71, 'design' ) ;
#64 = AXIS2_PLACEMENT_3D ( 'NONE', #46, #87, #155 ) ;
#65 = VERTEX_POINT ( 'NONE', #69 ) ;
#66 = ADVANCED_BREP_SHAPE_REPRESENTATION ( 'Web Model 46458_18716', ( #130, #20 ), #136 ) ;
#67 = PERSON_AND_ORGANIZATION ( #132, #30 ) ;
#68 = CALENDAR_DATE ( 2021, 13, 7 ) ;
#69 = CARTESIAN_POINT ( 'NONE',  ( 0.7500000000000000000, 0.000000000000000000, 12.69999999999999929 ) ) ;
#70 = DIRECTION ( 'NONE',  ( 1.000000000000000000, 0.000000000000000000, 0.000000000000000000 ) ) ;
#71 = APPLICATION_CONTEXT ( 'configuration controlled 3d designs of mechanical parts and assemblies' ) ;
#72 = EDGE_LOOP ( 'NONE', ( #35, #92 ) ) ;
#73 = CARTESIAN_POINT ( 'NONE',  ( -0.7500000000000000000, 0.000000000000000000, 0.000000000000000000 ) ) ;
#74 = APPROVAL_ROLE ( '' ) ;
#75 = DATE_TIME_ROLE ( 'classification_date' ) ;
#76 = PRODUCT_DEFINITION_SHAPE ( 'NONE', 'NONE',  #151 ) ;
#77 = DATE_AND_TIME ( #149, #129 ) ;
#78 = AXIS2_PLACEMENT_3D ( 'NONE', #144, #169, #23 ) ;
#79 = EDGE_LOOP ( 'NONE', ( #115, #124, #133, #17 ) ) ;
#80 = AXIS2_PLACEMENT_3D ( 'NONE', #165, #85, #18 ) ;
#81 = FACE_OUTER_BOUND ( 'NONE', #150, .T. ) ;
#82 = CC_DESIGN_APPROVAL ( #160, ( #151 ) ) ;
#83 = CALENDAR_DATE ( 2021, 13, 7 ) ;
#84 = APPROVAL_ROLE ( '' ) ;
#85 = DIRECTION ( 'NONE',  ( 1.000000000000000000, 0.000000000000000000, 0.000000000000000000 ) ) ;
#86 = ADVANCED_FACE ( 'NONE', ( #104 ), #154, .T. ) ;
#87 = DIRECTION ( 'NONE',  ( -1.000000000000000000, -0.000000000000000000, -0.000000000000000000 ) ) ;
#88 = AXIS2_PLACEMENT_3D ( 'NONE', #73, #34, #95 ) ;
#89 = FACE_OUTER_BOUND ( 'NONE', #79, .T. ) ;
#90 = COORDINATED_UNIVERSAL_TIME_OFFSET ( 5, 0, .BEHIND. ) ;
#91 = CC_DESIGN_PERSON_AND_ORGANIZATION_ASSIGNMENT ( #67, #31, ( #151 ) ) ;
#92 = ORIENTED_EDGE ( 'NONE', *, *, #60, .F. ) ;
#93 = CALENDAR_DATE ( 2021, 13, 7 ) ;
#94 = CC_DESIGN_APPROVAL ( #10, ( #55 ) ) ;
#95 = DIRECTION ( 'NONE',  ( 0.000000000000000000, 0.000000000000000000, -1.000000000000000000 ) ) ;
#96 = PERSON_AND_ORGANIZATION_ROLE ( 'creator' ) ;
#97 = CLOSED_SHELL ( 'NONE', ( #106, #86, #110, #8 ) ) ;
#98 = CARTESIAN_POINT ( 'NONE',  ( 0.7500000000000000000, 0.000000000000000000, 0.000000000000000000 ) ) ;
#99 = APPROVAL_DATE_TIME ( #101, #128 ) ;
#100 = DIRECTION ( 'NONE',  ( 0.000000000000000000, 0.000000000000000000, -1.000000000000000000 ) ) ;
#101 = DATE_AND_TIME ( #93, #114 ) ;
#102 = DATE_AND_TIME ( #143, #117 ) ;
#103 = LINE ( 'NONE', #118, #111 ) ;
#104 = FACE_OUTER_BOUND ( 'NONE', #167, .T. ) ;
#105 = CARTESIAN_POINT ( 'NONE',  ( 0.7500000000000000000, 0.000000000000000000, 12.69999999999999929 ) ) ;
#106 = ADVANCED_FACE ( 'NONE', ( #89 ), #50, .T. ) ;
#107 = APPLICATION_CONTEXT ( 'configuration controlled 3d designs of mechanical parts and assemblies' ) ;
#108 = CC_DESIGN_DATE_AND_TIME_ASSIGNMENT ( #146, #170, ( #151 ) ) ;
#109 = DIRECTION ( 'NONE',  ( -1.000000000000000000, -0.000000000000000000, -0.000000000000000000 ) ) ;
#110 = ADVANCED_FACE ( 'NONE', ( #81 ), #4, .T. ) ;
#111 = VECTOR ( 'NONE', #109, 1000.000000000000000 ) ;
#112 = CARTESIAN_POINT ( 'NONE',  ( -0.7500000000000000000, 0.000000000000000000, 0.000000000000000000 ) ) ;
#113 = CARTESIAN_POINT ( 'NONE',  ( -0.7500000000000000000, 1.555301434917138433E-15, -12.69999999999999929 ) ) ;
#114 = LOCAL_TIME ( 14, 31, 52.00000000000000000, #49 ) ;
#115 = ORIENTED_EDGE ( 'NONE', *, *, #148, .F. ) ;
#116 = PRODUCT_DEFINITION_FORMATION_WITH_SPECIFIED_SOURCE ( 'ANY', '', #52, .NOT_KNOWN. ) ;
#117 = LOCAL_TIME ( 14, 31, 52.00000000000000000, #90 ) ;
#118 = CARTESIAN_POINT ( 'NONE',  ( 0.7500000000000000000, 1.555301434917138433E-15, -12.69999999999999929 ) ) ;
#119 = COORDINATED_UNIVERSAL_TIME_OFFSET ( 5, 0, .BEHIND. ) ;
#120 = DIRECTION ( 'NONE',  ( 0.000000000000000000, 0.000000000000000000, 1.000000000000000000 ) ) ;
#121 = APPROVAL_STATUS ( 'not_yet_approved' ) ;
#122 = PERSON_AND_ORGANIZATION_ROLE ( 'classification_officer' ) ;
#123 = PERSON_AND_ORGANIZATION_ROLE ( 'design_supplier' ) ;
#124 = ORIENTED_EDGE ( 'NONE', *, *, #11, .T. ) ;
#125 = AXIS2_PLACEMENT_3D ( 'NONE', #44, #142, #57 ) ;
#126 = APPROVAL_STATUS ( 'not_yet_approved' ) ;
#127 = APPROVAL_PERSON_ORGANIZATION ( #27, #10, #84 ) ;
#128 = APPROVAL ( #164, 'UNSPECIFIED' ) ;
#129 = LOCAL_TIME ( 14, 31, 52.00000000000000000, #28 ) ;
#130 = MANIFOLD_SOLID_BREP ( 'Boss-Extrude1', #97 ) ;
#131 = APPROVAL_DATE_TIME ( #172, #10 ) ;
#132 = PERSON ( 'UNSPECIFIED', 'UNSPECIFIED', 'UNSPECIFIED', ('UNSPECIFIED'), ('UNSPECIFIED'), ('UNSPECIFIED') ) ;
#133 = ORIENTED_EDGE ( 'NONE', *, *, #60, .T. ) ;
#134 = PRODUCT_RELATED_PRODUCT_CATEGORY ( 'detail', '', ( #52 ) ) ;
#135 = VECTOR ( 'NONE', #140, 1000.000000000000000 ) ;
#136 =( GEOMETRIC_REPRESENTATION_CONTEXT ( 3 ) GLOBAL_UNCERTAINTY_ASSIGNED_CONTEXT ( ( #25 ) ) GLOBAL_UNIT_ASSIGNED_CONTEXT ( ( #139, #141, #33 ) ) REPRESENTATION_CONTEXT ( 'NONE', 'WORKASPACE' ) );
#137 = CARTESIAN_POINT ( 'NONE',  ( -0.7500000000000000000, 0.000000000000000000, 0.000000000000000000 ) ) ;
#138 = LINE ( 'NONE', #105, #135 ) ;
#139 =( LENGTH_UNIT ( ) NAMED_UNIT ( * ) SI_UNIT ( .MILLI., .METRE. ) );
#140 = DIRECTION ( 'NONE',  ( -1.000000000000000000, -0.000000000000000000, -0.000000000000000000 ) ) ;
#141 =( NAMED_UNIT ( * ) PLANE_ANGLE_UNIT ( ) SI_UNIT ( $, .RADIAN. ) );
#142 = DIRECTION ( 'NONE',  ( -1.000000000000000000, -0.000000000000000000, -0.000000000000000000 ) ) ;
#143 = CALENDAR_DATE ( 2021, 13, 7 ) ;
#144 = CARTESIAN_POINT ( 'NONE',  ( 0.7500000000000000000, 0.000000000000000000, 0.000000000000000000 ) ) ;
#145 = CARTESIAN_POINT ( 'NONE',  ( 0.000000000000000000, 0.000000000000000000, 0.000000000000000000 ) ) ;
#146 = DATE_AND_TIME ( #83, #36 ) ;
#147 = CC_DESIGN_PERSON_AND_ORGANIZATION_ASSIGNMENT ( #168, #122, ( #55 ) ) ;
#148 = EDGE_CURVE ( 'NONE', #173, #65, #58, .T. ) ;
#149 = CALENDAR_DATE ( 2021, 13, 7 ) ;
#150 = EDGE_LOOP ( 'NONE', ( #40, #26 ) ) ;
#151 = PRODUCT_DEFINITION ( 'UNKNOWN', '', #116, #63 ) ;
#152 = VERTEX_POINT ( 'NONE', #113 ) ;
#153 = DIRECTION ( 'NONE',  ( 0.000000000000000000, 0.000000000000000000, -1.000000000000000000 ) ) ;
#154 = CYLINDRICAL_SURFACE ( 'NONE', #125, 12.69999999999999929 ) ;
#155 = DIRECTION ( 'NONE',  ( 0.000000000000000000, 0.000000000000000000, 1.000000000000000000 ) ) ;
#156 = DIRECTION ( 'NONE',  ( 1.000000000000000000, 0.000000000000000000, 0.000000000000000000 ) ) ;
#157 = APPLICATION_PROTOCOL_DEFINITION ( 'international standard', 'config_control_design', 1994, #71 ) ;
#158 = ORIENTED_EDGE ( 'NONE', *, *, #171, .T. ) ;
#159 = PERSON_AND_ORGANIZATION ( #132, #30 ) ;
#160 = APPROVAL ( #126, 'UNSPECIFIED' ) ;
#161 = CC_DESIGN_DATE_AND_TIME_ASSIGNMENT ( #77, #75, ( #55 ) ) ;
#162 = COORDINATED_UNIVERSAL_TIME_OFFSET ( 5, 0, .BEHIND. ) ;
#163 = APPROVAL_PERSON_ORGANIZATION ( #2, #160, #74 ) ;
#164 = APPROVAL_STATUS ( 'not_yet_approved' ) ;
#165 = CARTESIAN_POINT ( 'NONE',  ( 0.7500000000000000000, 0.000000000000000000, 0.000000000000000000 ) ) ;
#166 = APPLICATION_PROTOCOL_DEFINITION ( 'international standard', 'config_control_design', 1994, #107 ) ;
#167 = EDGE_LOOP ( 'NONE', ( #175, #1, #48, #158 ) ) ;
#168 = PERSON_AND_ORGANIZATION ( #132, #30 ) ;
#169 = DIRECTION ( 'NONE',  ( 1.000000000000000000, 0.000000000000000000, 0.000000000000000000 ) ) ;
#170 = DATE_TIME_ROLE ( 'creation_date' ) ;
#171 = EDGE_CURVE ( 'NONE', #13, #152, #5, .T. ) ;
#172 = DATE_AND_TIME ( #68, #3 ) ;
#173 = VERTEX_POINT ( 'NONE', #7 ) ;
#174 = APPROVAL_PERSON_ORGANIZATION ( #29, #128, #6 ) ;
#175 = ORIENTED_EDGE ( 'NONE', *, *, #11, .F. ) ;
ENDSEC;
END-ISO-10303-21;
