ISO-10303-21;
HEADER;
FILE_DESCRIPTION (( 'STEP AP203' ),
    '1' );
FILE_NAME ('ISP Flat Parts_16802.step',
    '2020-12-15T21:26:44',
    ( '' ),
    ( '' ),
    'SwSTEP 2.0',
    'SolidWorks 2018',
    '' );
FILE_SCHEMA (( 'CONFIG_CONTROL_DESIGN' ));
ENDSEC;

DATA;
#1 = CARTESIAN_POINT ( 'NONE',  ( 0.0000000000000000000, 0.0000000000000000000, 2.000000000000000000 ) ) ;
#2 = CIRCLE ( 'NONE', #116, 12.69999999999999929 ) ;
#3 = CARTESIAN_POINT ( 'NONE',  ( 0.0000000000000000000, 0.0000000000000000000, 0.0000000000000000000 ) ) ;
#4 = CC_DESIGN_SECURITY_CLASSIFICATION ( #9, ( #175 ) ) ;
#5 = ADVANCED_FACE ( 'NONE', ( #81 ), #60, .T. ) ;
#6 = CC_DESIGN_PERSON_AND_ORGANIZATION_ASSIGNMENT ( #104, #21, ( #72 ) ) ;
#7 = PRODUCT_RELATED_PRODUCT_CATEGORY ( 'detail', '', ( #72 ) ) ;
#8 = SHAPE_DEFINITION_REPRESENTATION ( #106, #37 ) ;
#9 = SECURITY_CLASSIFICATION ( '', '', #79 ) ;
#10 = VECTOR ( 'NONE', #86, 1000.000000000000000 ) ;
#11 = COORDINATED_UNIVERSAL_TIME_OFFSET ( 5, 0, .BEHIND. ) ;
#12 = COORDINATED_UNIVERSAL_TIME_OFFSET ( 5, 0, .BEHIND. ) ;
#13 = ORIENTED_EDGE ( 'NONE', *, *, #75, .T. ) ;
#14 = DIRECTION ( 'NONE',  ( 1.000000000000000000, 0.0000000000000000000, 0.0000000000000000000 ) ) ;
#15 = DIRECTION ( 'NONE',  ( 0.0000000000000000000, 0.0000000000000000000, 1.000000000000000000 ) ) ;
#16 = ORIENTED_EDGE ( 'NONE', *, *, #45, .T. ) ;
#17 = PERSON_AND_ORGANIZATION_ROLE ( 'creator' ) ;
#18 = CC_DESIGN_PERSON_AND_ORGANIZATION_ASSIGNMENT ( #34, #140, ( #175 ) ) ;
#19 = CIRCLE ( 'NONE', #36, 12.69999999999999929 ) ;
#20 = AXIS2_PLACEMENT_3D ( 'NONE', #152, #44, #146 ) ;
#21 = PERSON_AND_ORGANIZATION_ROLE ( 'design_owner' ) ;
#22 = PERSON_AND_ORGANIZATION ( #102, #23 ) ;
#23 = ORGANIZATION ( 'UNSPECIFIED', 'UNSPECIFIED', '' ) ;
#24 = EDGE_CURVE ( 'NONE', #112, #40, #27, .T. ) ;
#25 = DATE_AND_TIME ( #133, #83 ) ;
#26 = CARTESIAN_POINT ( 'NONE',  ( 0.0000000000000000000, 0.0000000000000000000, 0.0000000000000000000 ) ) ;
#27 = CIRCLE ( 'NONE', #87, 12.69999999999999929 ) ;
#28 = DIRECTION ( 'NONE',  ( 0.0000000000000000000, 0.0000000000000000000, 1.000000000000000000 ) ) ;
#29 = CARTESIAN_POINT ( 'NONE',  ( 0.0000000000000000000, 0.0000000000000000000, 2.000000000000000000 ) ) ;
#30 = COORDINATED_UNIVERSAL_TIME_OFFSET ( 5, 0, .BEHIND. ) ;
#31 = APPROVAL_STATUS ( 'not_yet_approved' ) ;
#32 = DIRECTION ( 'NONE',  ( 0.0000000000000000000, 0.0000000000000000000, 1.000000000000000000 ) ) ;
#33 = VECTOR ( 'NONE', #88, 1000.000000000000000 ) ;
#34 = PERSON_AND_ORGANIZATION ( #102, #23 ) ;
#35 = LINE ( 'NONE', #145, #10 ) ;
#36 = AXIS2_PLACEMENT_3D ( 'NONE', #160, #95, #124 ) ;
#37 = ADVANCED_BREP_SHAPE_REPRESENTATION ( 'ISP Flat Parts_16802', ( #67, #63 ), #61 ) ;
#38 = LOCAL_TIME ( 16, 26, 44.00000000000000000, #30 ) ;
#39 = DIRECTION ( 'NONE',  ( 0.0000000000000000000, 0.0000000000000000000, 1.000000000000000000 ) ) ;
#40 = VERTEX_POINT ( 'NONE', #77 ) ;
#41 = ADVANCED_FACE ( 'NONE', ( #101 ), #170, .F. ) ;
#42 = DIRECTION ( 'NONE',  ( 1.000000000000000000, 0.0000000000000000000, 0.0000000000000000000 ) ) ;
#43 = DIRECTION ( 'NONE',  ( -0.0000000000000000000, -0.0000000000000000000, -1.000000000000000000 ) ) ;
#44 = DIRECTION ( 'NONE',  ( 0.0000000000000000000, 0.0000000000000000000, 1.000000000000000000 ) ) ;
#45 = EDGE_CURVE ( 'NONE', #96, #65, #2, .T. ) ;
#46 = CALENDAR_DATE ( 2020, 15, 12 ) ;
#47 = PERSON_AND_ORGANIZATION ( #102, #23 ) ;
#48 = DATE_TIME_ROLE ( 'classification_date' ) ;
#49 = CC_DESIGN_PERSON_AND_ORGANIZATION_ASSIGNMENT ( #109, #92, ( #9 ) ) ;
#50 =( NAMED_UNIT ( * ) PLANE_ANGLE_UNIT ( ) SI_UNIT ( $, .RADIAN. ) );
#51 = PRODUCT_DEFINITION ( 'UNKNOWN', '', #175, #153 ) ;
#52 = APPROVAL_ROLE ( '' ) ;
#53 = PERSON_AND_ORGANIZATION ( #102, #23 ) ;
#54 = LINE ( 'NONE', #59, #33 ) ;
#55 = ORIENTED_EDGE ( 'NONE', *, *, #103, .F. ) ;
#56 = CALENDAR_DATE ( 2020, 15, 12 ) ;
#57 = CYLINDRICAL_SURFACE ( 'NONE', #73, 12.69999999999999929 ) ;
#58 = DIRECTION ( 'NONE',  ( 1.000000000000000000, 0.0000000000000000000, 0.0000000000000000000 ) ) ;
#59 = CARTESIAN_POINT ( 'NONE',  ( -12.69999999999999929, 0.0000000000000000000, 2.000000000000000000 ) ) ;
#60 = CYLINDRICAL_SURFACE ( 'NONE', #143, 12.69999999999999929 ) ;
#61 =( GEOMETRIC_REPRESENTATION_CONTEXT ( 3 ) GLOBAL_UNCERTAINTY_ASSIGNED_CONTEXT ( ( #84 ) ) GLOBAL_UNIT_ASSIGNED_CONTEXT ( ( #157, #50, #172 ) ) REPRESENTATION_CONTEXT ( 'NONE', 'WORKASPACE' ) );
#62 = ORIENTED_EDGE ( 'NONE', *, *, #171, .F. ) ;
#63 = AXIS2_PLACEMENT_3D ( 'NONE', #3, #32, #94 ) ;
#64 = APPLICATION_CONTEXT ( 'configuration controlled 3d designs of mechanical parts and assemblies' ) ;
#65 = VERTEX_POINT ( 'NONE', #138 ) ;
#66 = CC_DESIGN_APPROVAL ( #168, ( #175 ) ) ;
#67 = MANIFOLD_SOLID_BREP ( 'Boss-Extrude1', #100 ) ;
#68 = APPROVAL_DATE_TIME ( #117, #142 ) ;
#69 = CC_DESIGN_APPROVAL ( #142, ( #9 ) ) ;
#70 = APPROVAL_PERSON_ORGANIZATION ( #82, #168, #52 ) ;
#71 = ORIENTED_EDGE ( 'NONE', *, *, #93, .F. ) ;
#72 = PRODUCT ( 'ISP Flat Parts_16802', 'ISP Flat Parts_16802', '', ( #147 ) ) ;
#73 = AXIS2_PLACEMENT_3D ( 'NONE', #29, #167, #169 ) ;
#74 = APPROVAL_DATE_TIME ( #136, #168 ) ;
#75 = EDGE_CURVE ( 'NONE', #65, #96, #127, .T. ) ;
#76 = EDGE_LOOP ( 'NONE', ( #55, #131, #150, #13 ) ) ;
#77 = CARTESIAN_POINT ( 'NONE',  ( 12.69999999999999929, 1.555301434917138433E-15, 2.000000000000000000 ) ) ;
#78 = CALENDAR_DATE ( 2020, 15, 12 ) ;
#79 = SECURITY_CLASSIFICATION_LEVEL ( 'unclassified' ) ;
#80 = DATE_TIME_ROLE ( 'creation_date' ) ;
#81 = FACE_OUTER_BOUND ( 'NONE', #76, .T. ) ;
#82 = PERSON_AND_ORGANIZATION ( #102, #23 ) ;
#83 = LOCAL_TIME ( 16, 26, 44.00000000000000000, #12 ) ;
#84 = UNCERTAINTY_MEASURE_WITH_UNIT (LENGTH_MEASURE( 1.000000000000000082E-05 ), #157, 'distance_accuracy_value', 'NONE');
#85 = EDGE_LOOP ( 'NONE', ( #62, #107, #16, #71 ) ) ;
#86 = DIRECTION ( 'NONE',  ( -0.0000000000000000000, -0.0000000000000000000, -1.000000000000000000 ) ) ;
#87 = AXIS2_PLACEMENT_3D ( 'NONE', #1, #15, #14 ) ;
#88 = DIRECTION ( 'NONE',  ( -0.0000000000000000000, -0.0000000000000000000, -1.000000000000000000 ) ) ;
#89 = CARTESIAN_POINT ( 'NONE',  ( -12.69999999999999929, 0.0000000000000000000, 2.000000000000000000 ) ) ;
#90 = EDGE_LOOP ( 'NONE', ( #159, #115 ) ) ;
#91 = EDGE_LOOP ( 'NONE', ( #99, #139 ) ) ;
#92 = PERSON_AND_ORGANIZATION_ROLE ( 'classification_officer' ) ;
#93 = EDGE_CURVE ( 'NONE', #112, #65, #54, .T. ) ;
#94 = DIRECTION ( 'NONE',  ( 1.000000000000000000, 0.0000000000000000000, 0.0000000000000000000 ) ) ;
#95 = DIRECTION ( 'NONE',  ( 0.0000000000000000000, 0.0000000000000000000, 1.000000000000000000 ) ) ;
#96 = VERTEX_POINT ( 'NONE', #105 ) ;
#97 = LOCAL_TIME ( 16, 26, 44.00000000000000000, #137 ) ;
#98 = AXIS2_PLACEMENT_3D ( 'NONE', #26, #135, #42 ) ;
#99 = ORIENTED_EDGE ( 'NONE', *, *, #24, .T. ) ;
#100 = CLOSED_SHELL ( 'NONE', ( #120, #5, #123, #41 ) ) ;
#101 = FACE_OUTER_BOUND ( 'NONE', #90, .T. ) ;
#102 = PERSON ( 'UNSPECIFIED', 'UNSPECIFIED', 'UNSPECIFIED', ('UNSPECIFIED'), ('UNSPECIFIED'), ('UNSPECIFIED') ) ;
#103 = EDGE_CURVE ( 'NONE', #40, #96, #35, .T. ) ;
#104 = PERSON_AND_ORGANIZATION ( #102, #23 ) ;
#105 = CARTESIAN_POINT ( 'NONE',  ( 12.69999999999999929, 1.555301434917138433E-15, 0.0000000000000000000 ) ) ;
#106 = PRODUCT_DEFINITION_SHAPE ( 'NONE', 'NONE',  #51 ) ;
#107 = ORIENTED_EDGE ( 'NONE', *, *, #103, .T. ) ;
#108 = CARTESIAN_POINT ( 'NONE',  ( 0.0000000000000000000, 0.0000000000000000000, 2.000000000000000000 ) ) ;
#109 = PERSON_AND_ORGANIZATION ( #102, #23 ) ;
#110 = CC_DESIGN_DATE_AND_TIME_ASSIGNMENT ( #25, #48, ( #9 ) ) ;
#111 = APPROVAL_ROLE ( '' ) ;
#112 = VERTEX_POINT ( 'NONE', #89 ) ;
#113 = APPROVAL ( #31, 'UNSPECIFIED' ) ;
#114 = PERSON_AND_ORGANIZATION ( #102, #23 ) ;
#115 = ORIENTED_EDGE ( 'NONE', *, *, #45, .F. ) ;
#116 = AXIS2_PLACEMENT_3D ( 'NONE', #121, #39, #58 ) ;
#117 = DATE_AND_TIME ( #46, #38 ) ;
#118 = PLANE ( 'NONE',  #125 ) ;
#119 = CC_DESIGN_APPROVAL ( #113, ( #51 ) ) ;
#120 = ADVANCED_FACE ( 'NONE', ( #129 ), #57, .T. ) ;
#121 = CARTESIAN_POINT ( 'NONE',  ( 0.0000000000000000000, 0.0000000000000000000, 0.0000000000000000000 ) ) ;
#122 = APPLICATION_CONTEXT ( 'configuration controlled 3d designs of mechanical parts and assemblies' ) ;
#123 = ADVANCED_FACE ( 'NONE', ( #163 ), #118, .T. ) ;
#124 = DIRECTION ( 'NONE',  ( 1.000000000000000000, 0.0000000000000000000, 0.0000000000000000000 ) ) ;
#125 = AXIS2_PLACEMENT_3D ( 'NONE', #108, #28, #144 ) ;
#126 = APPLICATION_PROTOCOL_DEFINITION ( 'international standard', 'config_control_design', 1994, #64 ) ;
#127 = CIRCLE ( 'NONE', #98, 12.69999999999999929 ) ;
#128 = CALENDAR_DATE ( 2020, 15, 12 ) ;
#129 = FACE_OUTER_BOUND ( 'NONE', #85, .T. ) ;
#130 = CC_DESIGN_DATE_AND_TIME_ASSIGNMENT ( #165, #80, ( #51 ) ) ;
#131 = ORIENTED_EDGE ( 'NONE', *, *, #24, .F. ) ;
#132 = APPROVAL_DATE_TIME ( #161, #113 ) ;
#133 = CALENDAR_DATE ( 2020, 15, 12 ) ;
#134 = DIRECTION ( 'NONE',  ( -1.000000000000000000, 0.0000000000000000000, 0.0000000000000000000 ) ) ;
#135 = DIRECTION ( 'NONE',  ( 0.0000000000000000000, 0.0000000000000000000, 1.000000000000000000 ) ) ;
#136 = DATE_AND_TIME ( #78, #173 ) ;
#137 = COORDINATED_UNIVERSAL_TIME_OFFSET ( 5, 0, .BEHIND. ) ;
#138 = CARTESIAN_POINT ( 'NONE',  ( -12.69999999999999929, 0.0000000000000000000, 0.0000000000000000000 ) ) ;
#139 = ORIENTED_EDGE ( 'NONE', *, *, #171, .T. ) ;
#140 = PERSON_AND_ORGANIZATION_ROLE ( 'design_supplier' ) ;
#141 = APPROVAL_STATUS ( 'not_yet_approved' ) ;
#142 = APPROVAL ( #148, 'UNSPECIFIED' ) ;
#143 = AXIS2_PLACEMENT_3D ( 'NONE', #166, #43, #134 ) ;
#144 = DIRECTION ( 'NONE',  ( 1.000000000000000000, 0.0000000000000000000, -0.0000000000000000000 ) ) ;
#145 = CARTESIAN_POINT ( 'NONE',  ( 12.69999999999999929, 1.555301434917138433E-15, 2.000000000000000000 ) ) ;
#146 = DIRECTION ( 'NONE',  ( 1.000000000000000000, 0.0000000000000000000, -0.0000000000000000000 ) ) ;
#147 = MECHANICAL_CONTEXT ( 'NONE', #64, 'mechanical' ) ;
#148 = APPROVAL_STATUS ( 'not_yet_approved' ) ;
#149 = APPLICATION_PROTOCOL_DEFINITION ( 'international standard', 'config_control_design', 1994, #122 ) ;
#150 = ORIENTED_EDGE ( 'NONE', *, *, #93, .T. ) ;
#151 = PERSON_AND_ORGANIZATION_ROLE ( 'creator' ) ;
#152 = CARTESIAN_POINT ( 'NONE',  ( 0.0000000000000000000, 0.0000000000000000000, 0.0000000000000000000 ) ) ;
#153 = DESIGN_CONTEXT ( 'detailed design', #122, 'design' ) ;
#154 = LOCAL_TIME ( 16, 26, 44.00000000000000000, #11 ) ;
#155 = CC_DESIGN_PERSON_AND_ORGANIZATION_ASSIGNMENT ( #47, #151, ( #175 ) ) ;
#156 = APPROVAL_PERSON_ORGANIZATION ( #114, #142, #111 ) ;
#157 =( LENGTH_UNIT ( ) NAMED_UNIT ( * ) SI_UNIT ( .MILLI., .METRE. ) );
#158 = APPROVAL_ROLE ( '' ) ;
#159 = ORIENTED_EDGE ( 'NONE', *, *, #75, .F. ) ;
#160 = CARTESIAN_POINT ( 'NONE',  ( 0.0000000000000000000, 0.0000000000000000000, 2.000000000000000000 ) ) ;
#161 = DATE_AND_TIME ( #56, #97 ) ;
#162 = COORDINATED_UNIVERSAL_TIME_OFFSET ( 5, 0, .BEHIND. ) ;
#163 = FACE_OUTER_BOUND ( 'NONE', #91, .T. ) ;
#164 = APPROVAL_PERSON_ORGANIZATION ( #22, #113, #158 ) ;
#165 = DATE_AND_TIME ( #128, #154 ) ;
#166 = CARTESIAN_POINT ( 'NONE',  ( 0.0000000000000000000, 0.0000000000000000000, 2.000000000000000000 ) ) ;
#167 = DIRECTION ( 'NONE',  ( -0.0000000000000000000, -0.0000000000000000000, -1.000000000000000000 ) ) ;
#168 = APPROVAL ( #141, 'UNSPECIFIED' ) ;
#169 = DIRECTION ( 'NONE',  ( -1.000000000000000000, 0.0000000000000000000, 0.0000000000000000000 ) ) ;
#170 = PLANE ( 'NONE',  #20 ) ;
#171 = EDGE_CURVE ( 'NONE', #40, #112, #19, .T. ) ;
#172 =( NAMED_UNIT ( * ) SI_UNIT ( $, .STERADIAN. ) SOLID_ANGLE_UNIT ( ) );
#173 = LOCAL_TIME ( 16, 26, 44.00000000000000000, #162 ) ;
#174 = CC_DESIGN_PERSON_AND_ORGANIZATION_ASSIGNMENT ( #53, #17, ( #51 ) ) ;
#175 = PRODUCT_DEFINITION_FORMATION_WITH_SPECIFIED_SOURCE ( 'ANY', '', #72, .NOT_KNOWN. ) ;
ENDSEC;
END-ISO-10303-21;
