ISO-10303-21;
HEADER;
FILE_DESCRIPTION (( 'STEP AP203' ),
    '1' );
FILE_NAME ('Web Model 19837_22695.step',
    '2022-05-24T16:12:47',
    ( 'WC' ),
    ( 'Windows Central' ),
    'SwSTEP 2.0',
    'SolidWorks 2021',
    '' );
FILE_SCHEMA (( 'CONFIG_CONTROL_DESIGN' ));
ENDSEC;

DATA;
#1 = PERSON_AND_ORGANIZATION_ROLE ( 'classification_officer' ) ;
#2 = PERSON_AND_ORGANIZATION_ROLE ( 'creator' ) ;
#3 = APPROVAL_DATE_TIME ( #77, #149 ) ;
#4 = CC_DESIGN_APPROVAL ( #71, ( #66 ) ) ;
#5 = PERSON_AND_ORGANIZATION_ROLE ( 'design_owner' ) ;
#6 = APPLICATION_PROTOCOL_DEFINITION ( 'international standard', 'config_control_design', 1994, #126 ) ;
#7 = CYLINDRICAL_SURFACE ( 'NONE', #42, 15.00000000000000000 ) ;
#8 = ADVANCED_FACE ( 'NONE', ( #96 ), #55, .F. ) ;
#9 = CARTESIAN_POINT ( 'NONE',  ( 0.000000000000000000, 0.000000000000000000, 1.000000000000000000 ) ) ;
#10 = DIRECTION ( 'NONE',  ( 1.000000000000000000, 0.000000000000000000, 0.000000000000000000 ) ) ;
#11 = ORIENTED_EDGE ( 'NONE', *, *, #14, .T. ) ;
#12 = ORIENTED_EDGE ( 'NONE', *, *, #61, .F. ) ;
#13 = ORIENTED_EDGE ( 'NONE', *, *, #14, .F. ) ;
#14 = EDGE_CURVE ( 'NONE', #98, #134, #133, .T. ) ;
#15 = VERTEX_POINT ( 'NONE', #84 ) ;
#16 = CC_DESIGN_PERSON_AND_ORGANIZATION_ASSIGNMENT ( #90, #5, ( #17 ) ) ;
#17 = PRODUCT ( 'Web Model 19837_22695', 'Web Model 19837_22695', '', ( #139 ) ) ;
#18 = APPROVAL_ROLE ( '' ) ;
#19 = COORDINATED_UNIVERSAL_TIME_OFFSET ( 5, 0, .BEHIND. ) ;
#20 = APPLICATION_PROTOCOL_DEFINITION ( 'international standard', 'config_control_design', 1994, #113 ) ;
#21 = CC_DESIGN_SECURITY_CLASSIFICATION ( #108, ( #66 ) ) ;
#22 = LINE ( 'NONE', #80, #160 ) ;
#23 = ADVANCED_FACE ( 'NONE', ( #68 ), #120, .T. ) ;
#24 = FACE_OUTER_BOUND ( 'NONE', #86, .T. ) ;
#25 = DIRECTION ( 'NONE',  ( -1.000000000000000000, 0.000000000000000000, 0.000000000000000000 ) ) ;
#26 = CARTESIAN_POINT ( 'NONE',  ( 0.000000000000000000, 0.000000000000000000, 0.000000000000000000 ) ) ;
#27 = CIRCLE ( 'NONE', #117, 15.00000000000000000 ) ;
#28 = COORDINATED_UNIVERSAL_TIME_OFFSET ( 5, 0, .BEHIND. ) ;
#29 = PERSON_AND_ORGANIZATION ( #144, #87 ) ;
#30 = CARTESIAN_POINT ( 'NONE',  ( 0.000000000000000000, 0.000000000000000000, 0.000000000000000000 ) ) ;
#31 = LOCAL_TIME ( 12, 12, 47.00000000000000000, #19 ) ;
#32 = PERSON_AND_ORGANIZATION ( #144, #87 ) ;
#33 = COORDINATED_UNIVERSAL_TIME_OFFSET ( 5, 0, .BEHIND. ) ;
#34 = AXIS2_PLACEMENT_3D ( 'NONE', #9, #123, #25 ) ;
#35 = CARTESIAN_POINT ( 'NONE',  ( 0.000000000000000000, 0.000000000000000000, 1.000000000000000000 ) ) ;
#36 = PERSON_AND_ORGANIZATION ( #144, #87 ) ;
#37 = DIRECTION ( 'NONE',  ( -1.000000000000000000, 0.000000000000000000, 0.000000000000000000 ) ) ;
#38 = APPROVAL_PERSON_ORGANIZATION ( #101, #71, #165 ) ;
#39 = DIRECTION ( 'NONE',  ( 1.000000000000000000, 0.000000000000000000, 0.000000000000000000 ) ) ;
#40 = CARTESIAN_POINT ( 'NONE',  ( 0.000000000000000000, 0.000000000000000000, 0.000000000000000000 ) ) ;
#41 = LOCAL_TIME ( 12, 12, 47.00000000000000000, #51 ) ;
#42 = AXIS2_PLACEMENT_3D ( 'NONE', #172, #53, #37 ) ;
#43 = EDGE_LOOP ( 'NONE', ( #146, #11, #161, #12 ) ) ;
#44 = LOCAL_TIME ( 12, 12, 47.00000000000000000, #50 ) ;
#45 = DATE_TIME_ROLE ( 'classification_date' ) ;
#46 = DATE_AND_TIME ( #104, #41 ) ;
#47 = EDGE_CURVE ( 'NONE', #98, #58, #73, .T. ) ;
#48 = DATE_AND_TIME ( #168, #69 ) ;
#49 = CC_DESIGN_APPROVAL ( #149, ( #136 ) ) ;
#50 = COORDINATED_UNIVERSAL_TIME_OFFSET ( 5, 0, .BEHIND. ) ;
#51 = COORDINATED_UNIVERSAL_TIME_OFFSET ( 5, 0, .BEHIND. ) ;
#52 = AXIS2_PLACEMENT_3D ( 'NONE', #141, #67, #10 ) ;
#53 = DIRECTION ( 'NONE',  ( -0.000000000000000000, -0.000000000000000000, -1.000000000000000000 ) ) ;
#54 = DESIGN_CONTEXT ( 'detailed design', #126, 'design' ) ;
#55 = PLANE ( 'NONE',  #127 ) ;
#56 = DIRECTION ( 'NONE',  ( 1.000000000000000000, 0.000000000000000000, -0.000000000000000000 ) ) ;
#57 = ADVANCED_FACE ( 'NONE', ( #24 ), #110, .T. ) ;
#58 = VERTEX_POINT ( 'NONE', #145 ) ;
#59 = APPROVAL ( #167, 'UNSPECIFIED' ) ;
#60 = DATE_TIME_ROLE ( 'creation_date' ) ;
#61 = EDGE_CURVE ( 'NONE', #58, #15, #22, .T. ) ;
#62 = PERSON_AND_ORGANIZATION ( #144, #87 ) ;
#63 = SHAPE_DEFINITION_REPRESENTATION ( #138, #163 ) ;
#64 = DATE_AND_TIME ( #89, #44 ) ;
#65 = DIRECTION ( 'NONE',  ( 0.000000000000000000, 0.000000000000000000, 1.000000000000000000 ) ) ;
#66 = PRODUCT_DEFINITION_FORMATION_WITH_SPECIFIED_SOURCE ( 'ANY', '', #17, .NOT_KNOWN. ) ;
#67 = DIRECTION ( 'NONE',  ( 0.000000000000000000, 0.000000000000000000, 1.000000000000000000 ) ) ;
#68 = FACE_OUTER_BOUND ( 'NONE', #43, .T. ) ;
#69 = LOCAL_TIME ( 12, 12, 47.00000000000000000, #33 ) ;
#70 = EDGE_LOOP ( 'NONE', ( #13, #150, #158, #162 ) ) ;
#71 = APPROVAL ( #114, 'UNSPECIFIED' ) ;
#72 = PRODUCT_RELATED_PRODUCT_CATEGORY ( 'detail', '', ( #17 ) ) ;
#73 = CIRCLE ( 'NONE', #52, 15.00000000000000000 ) ;
#74 = DIRECTION ( 'NONE',  ( 0.000000000000000000, 0.000000000000000000, 1.000000000000000000 ) ) ;
#75 = CC_DESIGN_PERSON_AND_ORGANIZATION_ASSIGNMENT ( #32, #169, ( #66 ) ) ;
#76 = DATE_AND_TIME ( #129, #140 ) ;
#77 = DATE_AND_TIME ( #156, #31 ) ;
#78 = PERSON_AND_ORGANIZATION ( #144, #87 ) ;
#79 = CARTESIAN_POINT ( 'NONE',  ( 15.00000000000000000, 1.836970198721029589E-15, 0.000000000000000000 ) ) ;
#80 = CARTESIAN_POINT ( 'NONE',  ( -15.00000000000000000, 0.000000000000000000, 1.000000000000000000 ) ) ;
#81 = UNCERTAINTY_MEASURE_WITH_UNIT (LENGTH_MEASURE( 1.000000000000000082E-05 ), #121, 'distance_accuracy_value', 'NONE');
#82 = DIRECTION ( 'NONE',  ( 0.000000000000000000, 0.000000000000000000, 1.000000000000000000 ) ) ;
#83 =( GEOMETRIC_REPRESENTATION_CONTEXT ( 3 ) GLOBAL_UNCERTAINTY_ASSIGNED_CONTEXT ( ( #81 ) ) GLOBAL_UNIT_ASSIGNED_CONTEXT ( ( #121, #171, #95 ) ) REPRESENTATION_CONTEXT ( 'NONE', 'WORKASPACE' ) );
#84 = CARTESIAN_POINT ( 'NONE',  ( -15.00000000000000000, 0.000000000000000000, 0.000000000000000000 ) ) ;
#85 = CLOSED_SHELL ( 'NONE', ( #23, #152, #57, #8 ) ) ;
#86 = EDGE_LOOP ( 'NONE', ( #111, #99 ) ) ;
#87 = ORGANIZATION ( 'UNSPECIFIED', 'UNSPECIFIED', '' ) ;
#88 = CC_DESIGN_PERSON_AND_ORGANIZATION_ASSIGNMENT ( #36, #1, ( #108 ) ) ;
#89 = CALENDAR_DATE ( 2022, 24, 5 ) ;
#90 = PERSON_AND_ORGANIZATION ( #144, #87 ) ;
#91 = VECTOR ( 'NONE', #143, 1000.000000000000000 ) ;
#92 = DIRECTION ( 'NONE',  ( 1.000000000000000000, 0.000000000000000000, 0.000000000000000000 ) ) ;
#93 = CC_DESIGN_APPROVAL ( #59, ( #108 ) ) ;
#94 = CARTESIAN_POINT ( 'NONE',  ( 0.000000000000000000, 0.000000000000000000, 1.000000000000000000 ) ) ;
#95 =( NAMED_UNIT ( * ) SI_UNIT ( $, .STERADIAN. ) SOLID_ANGLE_UNIT ( ) );
#96 = FACE_OUTER_BOUND ( 'NONE', #125, .T. ) ;
#97 = DIRECTION ( 'NONE',  ( 0.000000000000000000, 0.000000000000000000, 1.000000000000000000 ) ) ;
#98 = VERTEX_POINT ( 'NONE', #109 ) ;
#99 = ORIENTED_EDGE ( 'NONE', *, *, #47, .T. ) ;
#100 = CC_DESIGN_DATE_AND_TIME_ASSIGNMENT ( #46, #60, ( #136 ) ) ;
#101 = PERSON_AND_ORGANIZATION ( #144, #87 ) ;
#102 = APPROVAL_STATUS ( 'not_yet_approved' ) ;
#103 = CIRCLE ( 'NONE', #147, 15.00000000000000000 ) ;
#104 = CALENDAR_DATE ( 2022, 24, 5 ) ;
#105 = FACE_OUTER_BOUND ( 'NONE', #70, .T. ) ;
#106 = CARTESIAN_POINT ( 'NONE',  ( 0.000000000000000000, 0.000000000000000000, 0.000000000000000000 ) ) ;
#107 = DIRECTION ( 'NONE',  ( 1.000000000000000000, 0.000000000000000000, 0.000000000000000000 ) ) ;
#108 = SECURITY_CLASSIFICATION ( '', '', #131 ) ;
#109 = CARTESIAN_POINT ( 'NONE',  ( 15.00000000000000000, 1.836970198721029589E-15, 1.000000000000000000 ) ) ;
#110 = PLANE ( 'NONE',  #135 ) ;
#111 = ORIENTED_EDGE ( 'NONE', *, *, #118, .T. ) ;
#112 = EDGE_CURVE ( 'NONE', #134, #15, #103, .T. ) ;
#113 = APPLICATION_CONTEXT ( 'configuration controlled 3d designs of mechanical parts and assemblies' ) ;
#114 = APPROVAL_STATUS ( 'not_yet_approved' ) ;
#115 = PERSON_AND_ORGANIZATION ( #144, #87 ) ;
#116 = DIRECTION ( 'NONE',  ( 1.000000000000000000, 0.000000000000000000, 0.000000000000000000 ) ) ;
#117 = AXIS2_PLACEMENT_3D ( 'NONE', #94, #97, #107 ) ;
#118 = EDGE_CURVE ( 'NONE', #58, #98, #27, .T. ) ;
#119 = CC_DESIGN_PERSON_AND_ORGANIZATION_ASSIGNMENT ( #62, #155, ( #136 ) ) ;
#120 = CYLINDRICAL_SURFACE ( 'NONE', #34, 15.00000000000000000 ) ;
#121 =( LENGTH_UNIT ( ) NAMED_UNIT ( * ) SI_UNIT ( .MILLI., .METRE. ) );
#122 = APPROVAL_PERSON_ORGANIZATION ( #115, #149, #18 ) ;
#123 = DIRECTION ( 'NONE',  ( -0.000000000000000000, -0.000000000000000000, -1.000000000000000000 ) ) ;
#124 = ORIENTED_EDGE ( 'NONE', *, *, #112, .F. ) ;
#125 = EDGE_LOOP ( 'NONE', ( #174, #124 ) ) ;
#126 = APPLICATION_CONTEXT ( 'configuration controlled 3d designs of mechanical parts and assemblies' ) ;
#127 = AXIS2_PLACEMENT_3D ( 'NONE', #106, #65, #56 ) ;
#128 = APPROVAL_DATE_TIME ( #76, #59 ) ;
#129 = CALENDAR_DATE ( 2022, 24, 5 ) ;
#130 = DIRECTION ( 'NONE',  ( 1.000000000000000000, 0.000000000000000000, -0.000000000000000000 ) ) ;
#131 = SECURITY_CLASSIFICATION_LEVEL ( 'unclassified' ) ;
#132 = DIRECTION ( 'NONE',  ( 0.000000000000000000, 0.000000000000000000, 1.000000000000000000 ) ) ;
#133 = LINE ( 'NONE', #142, #91 ) ;
#134 = VERTEX_POINT ( 'NONE', #79 ) ;
#135 = AXIS2_PLACEMENT_3D ( 'NONE', #35, #82, #130 ) ;
#136 = PRODUCT_DEFINITION ( 'UNKNOWN', '', #66, #54 ) ;
#137 = AXIS2_PLACEMENT_3D ( 'NONE', #26, #132, #116 ) ;
#138 = PRODUCT_DEFINITION_SHAPE ( 'NONE', 'NONE',  #136 ) ;
#139 = MECHANICAL_CONTEXT ( 'NONE', #113, 'mechanical' ) ;
#140 = LOCAL_TIME ( 12, 12, 47.00000000000000000, #28 ) ;
#141 = CARTESIAN_POINT ( 'NONE',  ( 0.000000000000000000, 0.000000000000000000, 1.000000000000000000 ) ) ;
#142 = CARTESIAN_POINT ( 'NONE',  ( 15.00000000000000000, 1.836970198721029589E-15, 1.000000000000000000 ) ) ;
#143 = DIRECTION ( 'NONE',  ( -0.000000000000000000, -0.000000000000000000, -1.000000000000000000 ) ) ;
#144 = PERSON ( 'UNSPECIFIED', 'UNSPECIFIED', 'UNSPECIFIED', ('UNSPECIFIED'), ('UNSPECIFIED'), ('UNSPECIFIED') ) ;
#145 = CARTESIAN_POINT ( 'NONE',  ( -15.00000000000000000, 0.000000000000000000, 1.000000000000000000 ) ) ;
#146 = ORIENTED_EDGE ( 'NONE', *, *, #47, .F. ) ;
#147 = AXIS2_PLACEMENT_3D ( 'NONE', #40, #157, #39 ) ;
#148 = EDGE_CURVE ( 'NONE', #15, #134, #170, .T. ) ;
#149 = APPROVAL ( #102, 'UNSPECIFIED' ) ;
#150 = ORIENTED_EDGE ( 'NONE', *, *, #118, .F. ) ;
#151 = AXIS2_PLACEMENT_3D ( 'NONE', #30, #74, #92 ) ;
#152 = ADVANCED_FACE ( 'NONE', ( #105 ), #7, .T. ) ;
#153 = APPROVAL_ROLE ( '' ) ;
#154 = APPROVAL_DATE_TIME ( #48, #71 ) ;
#155 = PERSON_AND_ORGANIZATION_ROLE ( 'creator' ) ;
#156 = CALENDAR_DATE ( 2022, 24, 5 ) ;
#157 = DIRECTION ( 'NONE',  ( 0.000000000000000000, 0.000000000000000000, 1.000000000000000000 ) ) ;
#158 = ORIENTED_EDGE ( 'NONE', *, *, #61, .T. ) ;
#159 = CC_DESIGN_PERSON_AND_ORGANIZATION_ASSIGNMENT ( #29, #2, ( #66 ) ) ;
#160 = VECTOR ( 'NONE', #173, 1000.000000000000000 ) ;
#161 = ORIENTED_EDGE ( 'NONE', *, *, #112, .T. ) ;
#162 = ORIENTED_EDGE ( 'NONE', *, *, #148, .T. ) ;
#163 = ADVANCED_BREP_SHAPE_REPRESENTATION ( 'Web Model 19837_22695', ( #175, #151 ), #83 ) ;
#164 = APPROVAL_PERSON_ORGANIZATION ( #78, #59, #153 ) ;
#165 = APPROVAL_ROLE ( '' ) ;
#166 = CC_DESIGN_DATE_AND_TIME_ASSIGNMENT ( #64, #45, ( #108 ) ) ;
#167 = APPROVAL_STATUS ( 'not_yet_approved' ) ;
#168 = CALENDAR_DATE ( 2022, 24, 5 ) ;
#169 = PERSON_AND_ORGANIZATION_ROLE ( 'design_supplier' ) ;
#170 = CIRCLE ( 'NONE', #137, 15.00000000000000000 ) ;
#171 =( NAMED_UNIT ( * ) PLANE_ANGLE_UNIT ( ) SI_UNIT ( $, .RADIAN. ) );
#172 = CARTESIAN_POINT ( 'NONE',  ( 0.000000000000000000, 0.000000000000000000, 1.000000000000000000 ) ) ;
#173 = DIRECTION ( 'NONE',  ( -0.000000000000000000, -0.000000000000000000, -1.000000000000000000 ) ) ;
#174 = ORIENTED_EDGE ( 'NONE', *, *, #148, .F. ) ;
#175 = MANIFOLD_SOLID_BREP ( 'Boss-Extrude1', #85 ) ;
ENDSEC;
END-ISO-10303-21;
