ISO-10303-21;
HEADER;
FILE_DESCRIPTION (( 'STEP AP203' ),
    '1' );
FILE_NAME ('Web Model 33003_33003.step',
    '2019-01-17T18:15:22',
    ( '' ),
    ( '' ),
    'SwSTEP 2.0',
    'SolidWorks 2016',
    '' );
FILE_SCHEMA (( 'CONFIG_CONTROL_DESIGN' ));
ENDSEC;

DATA;
#1 = AXIS2_PLACEMENT_3D ( 'NONE', #60, #135, #77 ) ;
#2 = CC_DESIGN_DATE_AND_TIME_ASSIGNMENT ( #109, #69, ( #160 ) ) ;
#3 = APPROVAL_DATE_TIME ( #120, #162 ) ;
#4 = AXIS2_PLACEMENT_3D ( 'NONE', #49, #137, #155 ) ;
#5 = CARTESIAN_POINT ( 'NONE',  ( 1.000000000000000000, 0.0000000000000000000, 0.0000000000000000000 ) ) ;
#6 = APPROVAL ( #125, 'UNSPECIFIED' ) ;
#7 = DIRECTION ( 'NONE',  ( 0.0000000000000000000, 0.0000000000000000000, -1.000000000000000000 ) ) ;
#8 = DIRECTION ( 'NONE',  ( 1.000000000000000000, 0.0000000000000000000, 0.0000000000000000000 ) ) ;
#9 = CARTESIAN_POINT ( 'NONE',  ( 1.000000000000000000, 0.0000000000000000000, 62.50000000000000000 ) ) ;
#10 = CIRCLE ( 'NONE', #20, 62.50000000000000000 ) ;
#11 = APPLICATION_PROTOCOL_DEFINITION ( 'international standard', 'config_control_design', 1994, #96 ) ;
#12 = APPROVAL_ROLE ( '' ) ;
#13 = APPROVAL_ROLE ( '' ) ;
#14 = CC_DESIGN_APPROVAL ( #154, ( #160 ) ) ;
#15 = ADVANCED_BREP_SHAPE_REPRESENTATION ( 'Web Model 33003_33003', ( #67, #55 ), #26 ) ;
#16 = APPLICATION_PROTOCOL_DEFINITION ( 'international standard', 'config_control_design', 1994, #139 ) ;
#17 = EDGE_LOOP ( 'NONE', ( #172, #127 ) ) ;
#18 = AXIS2_PLACEMENT_3D ( 'NONE', #66, #38, #25 ) ;
#19 = FACE_OUTER_BOUND ( 'NONE', #95, .T. ) ;
#20 = AXIS2_PLACEMENT_3D ( 'NONE', #48, #88, #7 ) ;
#21 = CALENDAR_DATE ( 2019, 17, 1 ) ;
#22 = ORIENTED_EDGE ( 'NONE', *, *, #149, .F. ) ;
#23 = PERSON ( 'UNSPECIFIED', 'UNSPECIFIED', 'UNSPECIFIED', ('UNSPECIFIED'), ('UNSPECIFIED'), ('UNSPECIFIED') ) ;
#24 = CIRCLE ( 'NONE', #4, 62.50000000000000000 ) ;
#25 = DIRECTION ( 'NONE',  ( 0.0000000000000000000, 0.0000000000000000000, -1.000000000000000000 ) ) ;
#26 =( GEOMETRIC_REPRESENTATION_CONTEXT ( 3 ) GLOBAL_UNCERTAINTY_ASSIGNED_CONTEXT ( ( #78 ) ) GLOBAL_UNIT_ASSIGNED_CONTEXT ( ( #123, #40, #39 ) ) REPRESENTATION_CONTEXT ( 'NONE', 'WORKASPACE' ) );
#27 = LOCAL_TIME ( 13, 15, 22.00000000000000000, #62 ) ;
#28 = MECHANICAL_CONTEXT ( 'NONE', #96, 'mechanical' ) ;
#29 = COORDINATED_UNIVERSAL_TIME_OFFSET ( 5, 0, .BEHIND. ) ;
#30 = ORIENTED_EDGE ( 'NONE', *, *, #138, .F. ) ;
#31 = CALENDAR_DATE ( 2019, 17, 1 ) ;
#32 = ADVANCED_FACE ( 'NONE', ( #19 ), #92, .F. ) ;
#33 = APPROVAL_DATE_TIME ( #168, #6 ) ;
#34 = ORIENTED_EDGE ( 'NONE', *, *, #59, .F. ) ;
#35 = PERSON_AND_ORGANIZATION ( #23, #163 ) ;
#36 = CC_DESIGN_APPROVAL ( #162, ( #103 ) ) ;
#37 = CARTESIAN_POINT ( 'NONE',  ( 1.000000000000000000, 0.0000000000000000000, 62.50000000000000000 ) ) ;
#38 = DIRECTION ( 'NONE',  ( 1.000000000000000000, 0.0000000000000000000, 0.0000000000000000000 ) ) ;
#39 =( NAMED_UNIT ( * ) SI_UNIT ( $, .STERADIAN. ) SOLID_ANGLE_UNIT ( ) );
#40 =( NAMED_UNIT ( * ) PLANE_ANGLE_UNIT ( ) SI_UNIT ( $, .RADIAN. ) );
#41 = DATE_AND_TIME ( #44, #142 ) ;
#42 = APPROVAL_STATUS ( 'not_yet_approved' ) ;
#43 = ORIENTED_EDGE ( 'NONE', *, *, #138, .T. ) ;
#44 = CALENDAR_DATE ( 2019, 17, 1 ) ;
#45 = ORIENTED_EDGE ( 'NONE', *, *, #105, .F. ) ;
#46 = APPROVAL_DATE_TIME ( #133, #154 ) ;
#47 = CARTESIAN_POINT ( 'NONE',  ( 1.000000000000000000, 7.654042494670957800E-015, -62.50000000000000000 ) ) ;
#48 = CARTESIAN_POINT ( 'NONE',  ( 1.000000000000000000, 0.0000000000000000000, 0.0000000000000000000 ) ) ;
#49 = CARTESIAN_POINT ( 'NONE',  ( 1.000000000000000000, 0.0000000000000000000, 0.0000000000000000000 ) ) ;
#50 = VERTEX_POINT ( 'NONE', #47 ) ;
#51 = DIRECTION ( 'NONE',  ( 1.000000000000000000, 0.0000000000000000000, 0.0000000000000000000 ) ) ;
#52 = PRODUCT_DEFINITION_FORMATION_WITH_SPECIFIED_SOURCE ( 'ANY', '', #104, .NOT_KNOWN. ) ;
#53 = PERSON_AND_ORGANIZATION_ROLE ( 'creator' ) ;
#54 = APPROVAL_ROLE ( '' ) ;
#55 = AXIS2_PLACEMENT_3D ( 'NONE', #81, #68, #113 ) ;
#56 = CALENDAR_DATE ( 2019, 17, 1 ) ;
#57 = ADVANCED_FACE ( 'NONE', ( #93 ), #65, .T. ) ;
#58 = CLOSED_SHELL ( 'NONE', ( #57, #101, #132, #32 ) ) ;
#59 = EDGE_CURVE ( 'NONE', #159, #164, #148, .T. ) ;
#60 = CARTESIAN_POINT ( 'NONE',  ( -1.000000000000000000, 0.0000000000000000000, 0.0000000000000000000 ) ) ;
#61 = CC_DESIGN_APPROVAL ( #6, ( #52 ) ) ;
#62 = COORDINATED_UNIVERSAL_TIME_OFFSET ( 5, 0, .BEHIND. ) ;
#63 = DIRECTION ( 'NONE',  ( 0.0000000000000000000, 0.0000000000000000000, -1.000000000000000000 ) ) ;
#64 = PERSON_AND_ORGANIZATION ( #23, #163 ) ;
#65 = CYLINDRICAL_SURFACE ( 'NONE', #143, 62.50000000000000000 ) ;
#66 = CARTESIAN_POINT ( 'NONE',  ( -1.000000000000000000, 0.0000000000000000000, 0.0000000000000000000 ) ) ;
#67 = MANIFOLD_SOLID_BREP ( 'Boss-Extrude1', #58 ) ;
#68 = DIRECTION ( 'NONE',  ( 0.0000000000000000000, 0.0000000000000000000, 1.000000000000000000 ) ) ;
#69 = DATE_TIME_ROLE ( 'classification_date' ) ;
#70 = PRODUCT_RELATED_PRODUCT_CATEGORY ( 'detail', '', ( #104 ) ) ;
#71 = APPROVAL_PERSON_ORGANIZATION ( #100, #6, #12 ) ;
#72 = VECTOR ( 'NONE', #118, 1000.000000000000000 ) ;
#73 = EDGE_CURVE ( 'NONE', #50, #159, #10, .T. ) ;
#74 = LOCAL_TIME ( 13, 15, 22.00000000000000000, #29 ) ;
#75 = DIRECTION ( 'NONE',  ( -1.000000000000000000, -0.0000000000000000000, -0.0000000000000000000 ) ) ;
#76 = PERSON_AND_ORGANIZATION ( #23, #163 ) ;
#77 = DIRECTION ( 'NONE',  ( 0.0000000000000000000, 0.0000000000000000000, -1.000000000000000000 ) ) ;
#78 = UNCERTAINTY_MEASURE_WITH_UNIT (LENGTH_MEASURE( 1.000000000000000100E-005 ), #123, 'distance_accuracy_value', 'NONE');
#79 = CARTESIAN_POINT ( 'NONE',  ( -1.000000000000000000, 0.0000000000000000000, 62.50000000000000000 ) ) ;
#80 = PERSON_AND_ORGANIZATION ( #23, #163 ) ;
#81 = CARTESIAN_POINT ( 'NONE',  ( 0.0000000000000000000, 0.0000000000000000000, 0.0000000000000000000 ) ) ;
#82 = CC_DESIGN_PERSON_AND_ORGANIZATION_ASSIGNMENT ( #171, #129, ( #52 ) ) ;
#83 = SECURITY_CLASSIFICATION_LEVEL ( 'unclassified' ) ;
#84 = COORDINATED_UNIVERSAL_TIME_OFFSET ( 5, 0, .BEHIND. ) ;
#85 = ORIENTED_EDGE ( 'NONE', *, *, #156, .T. ) ;
#86 = DESIGN_CONTEXT ( 'detailed design', #139, 'design' ) ;
#87 = VECTOR ( 'NONE', #122, 1000.000000000000000 ) ;
#88 = DIRECTION ( 'NONE',  ( 1.000000000000000000, 0.0000000000000000000, 0.0000000000000000000 ) ) ;
#89 = VERTEX_POINT ( 'NONE', #119 ) ;
#90 = DIRECTION ( 'NONE',  ( 0.0000000000000000000, 0.0000000000000000000, 1.000000000000000000 ) ) ;
#91 = AXIS2_PLACEMENT_3D ( 'NONE', #170, #51, #63 ) ;
#92 = PLANE ( 'NONE',  #1 ) ;
#93 = FACE_OUTER_BOUND ( 'NONE', #99, .T. ) ;
#94 = CARTESIAN_POINT ( 'NONE',  ( -1.000000000000000000, 0.0000000000000000000, 0.0000000000000000000 ) ) ;
#95 = EDGE_LOOP ( 'NONE', ( #45, #131 ) ) ;
#96 = APPLICATION_CONTEXT ( 'configuration controlled 3d designs of mechanical parts and assemblies' ) ;
#97 = CALENDAR_DATE ( 2019, 17, 1 ) ;
#98 = LINE ( 'NONE', #108, #87 ) ;
#99 = EDGE_LOOP ( 'NONE', ( #102, #43, #85, #34 ) ) ;
#100 = PERSON_AND_ORGANIZATION ( #23, #163 ) ;
#101 = ADVANCED_FACE ( 'NONE', ( #124 ), #112, .T. ) ;
#102 = ORIENTED_EDGE ( 'NONE', *, *, #73, .F. ) ;
#103 = PRODUCT_DEFINITION ( 'UNKNOWN', '', #52, #86 ) ;
#104 = PRODUCT ( 'Web Model 33003_33003', 'Web Model 33003_33003', '', ( #28 ) ) ;
#105 = EDGE_CURVE ( 'NONE', #164, #89, #116, .T. ) ;
#106 = DIRECTION ( 'NONE',  ( 0.0000000000000000000, 0.0000000000000000000, -1.000000000000000000 ) ) ;
#107 = APPROVAL_PERSON_ORGANIZATION ( #80, #162, #54 ) ;
#108 = CARTESIAN_POINT ( 'NONE',  ( 1.000000000000000000, 7.654042494670957800E-015, -62.50000000000000000 ) ) ;
#109 = DATE_AND_TIME ( #56, #144 ) ;
#110 = PERSON_AND_ORGANIZATION_ROLE ( 'design_owner' ) ;
#111 = DATE_TIME_ROLE ( 'creation_date' ) ;
#112 = CYLINDRICAL_SURFACE ( 'NONE', #151, 62.50000000000000000 ) ;
#113 = DIRECTION ( 'NONE',  ( 1.000000000000000000, 0.0000000000000000000, 0.0000000000000000000 ) ) ;
#114 = CC_DESIGN_DATE_AND_TIME_ASSIGNMENT ( #41, #111, ( #103 ) ) ;
#115 = COORDINATED_UNIVERSAL_TIME_OFFSET ( 5, 0, .BEHIND. ) ;
#116 = CIRCLE ( 'NONE', #161, 62.50000000000000000 ) ;
#117 = CARTESIAN_POINT ( 'NONE',  ( 1.000000000000000000, 0.0000000000000000000, 0.0000000000000000000 ) ) ;
#118 = DIRECTION ( 'NONE',  ( -1.000000000000000000, -0.0000000000000000000, -0.0000000000000000000 ) ) ;
#119 = CARTESIAN_POINT ( 'NONE',  ( -1.000000000000000000, 7.654042494670957800E-015, -62.50000000000000000 ) ) ;
#120 = DATE_AND_TIME ( #97, #74 ) ;
#121 = ORIENTED_EDGE ( 'NONE', *, *, #59, .T. ) ;
#122 = DIRECTION ( 'NONE',  ( -1.000000000000000000, -0.0000000000000000000, -0.0000000000000000000 ) ) ;
#123 =( LENGTH_UNIT ( ) NAMED_UNIT ( * ) SI_UNIT ( .MILLI., .METRE. ) );
#124 = FACE_OUTER_BOUND ( 'NONE', #152, .T. ) ;
#125 = APPROVAL_STATUS ( 'not_yet_approved' ) ;
#126 = FACE_OUTER_BOUND ( 'NONE', #17, .T. ) ;
#127 = ORIENTED_EDGE ( 'NONE', *, *, #73, .T. ) ;
#128 = PERSON_AND_ORGANIZATION_ROLE ( 'classification_officer' ) ;
#129 = PERSON_AND_ORGANIZATION_ROLE ( 'creator' ) ;
#130 = COORDINATED_UNIVERSAL_TIME_OFFSET ( 5, 0, .BEHIND. ) ;
#131 = ORIENTED_EDGE ( 'NONE', *, *, #156, .F. ) ;
#132 = ADVANCED_FACE ( 'NONE', ( #126 ), #136, .T. ) ;
#133 = DATE_AND_TIME ( #21, #27 ) ;
#134 = CC_DESIGN_PERSON_AND_ORGANIZATION_ASSIGNMENT ( #166, #175, ( #52 ) ) ;
#135 = DIRECTION ( 'NONE',  ( 1.000000000000000000, 0.0000000000000000000, 0.0000000000000000000 ) ) ;
#136 = PLANE ( 'NONE',  #91 ) ;
#137 = DIRECTION ( 'NONE',  ( 1.000000000000000000, 0.0000000000000000000, 0.0000000000000000000 ) ) ;
#138 = EDGE_CURVE ( 'NONE', #50, #89, #98, .T. ) ;
#139 = APPLICATION_CONTEXT ( 'configuration controlled 3d designs of mechanical parts and assemblies' ) ;
#140 = PRODUCT_DEFINITION_SHAPE ( 'NONE', 'NONE',  #103 ) ;
#141 = ORIENTED_EDGE ( 'NONE', *, *, #105, .T. ) ;
#142 = LOCAL_TIME ( 13, 15, 22.00000000000000000, #84 ) ;
#143 = AXIS2_PLACEMENT_3D ( 'NONE', #117, #75, #90 ) ;
#144 = LOCAL_TIME ( 13, 15, 22.00000000000000000, #130 ) ;
#145 = CC_DESIGN_PERSON_AND_ORGANIZATION_ASSIGNMENT ( #173, #110, ( #104 ) ) ;
#146 = DIRECTION ( 'NONE',  ( 0.0000000000000000000, 0.0000000000000000000, 1.000000000000000000 ) ) ;
#147 = CIRCLE ( 'NONE', #18, 62.50000000000000000 ) ;
#148 = LINE ( 'NONE', #37, #72 ) ;
#149 = EDGE_CURVE ( 'NONE', #159, #50, #24, .T. ) ;
#150 = CC_DESIGN_PERSON_AND_ORGANIZATION_ASSIGNMENT ( #64, #53, ( #103 ) ) ;
#151 = AXIS2_PLACEMENT_3D ( 'NONE', #5, #167, #146 ) ;
#152 = EDGE_LOOP ( 'NONE', ( #30, #22, #121, #141 ) ) ;
#153 = APPROVAL_PERSON_ORGANIZATION ( #35, #154, #13 ) ;
#154 = APPROVAL ( #158, 'UNSPECIFIED' ) ;
#155 = DIRECTION ( 'NONE',  ( 0.0000000000000000000, 0.0000000000000000000, -1.000000000000000000 ) ) ;
#156 = EDGE_CURVE ( 'NONE', #89, #164, #147, .T. ) ;
#157 = LOCAL_TIME ( 13, 15, 22.00000000000000000, #115 ) ;
#158 = APPROVAL_STATUS ( 'not_yet_approved' ) ;
#159 = VERTEX_POINT ( 'NONE', #9 ) ;
#160 = SECURITY_CLASSIFICATION ( '', '', #83 ) ;
#161 = AXIS2_PLACEMENT_3D ( 'NONE', #94, #8, #106 ) ;
#162 = APPROVAL ( #42, 'UNSPECIFIED' ) ;
#163 = ORGANIZATION ( 'UNSPECIFIED', 'UNSPECIFIED', '' ) ;
#164 = VERTEX_POINT ( 'NONE', #79 ) ;
#165 = CC_DESIGN_SECURITY_CLASSIFICATION ( #160, ( #52 ) ) ;
#166 = PERSON_AND_ORGANIZATION ( #23, #163 ) ;
#167 = DIRECTION ( 'NONE',  ( -1.000000000000000000, -0.0000000000000000000, -0.0000000000000000000 ) ) ;
#168 = DATE_AND_TIME ( #31, #157 ) ;
#169 = CC_DESIGN_PERSON_AND_ORGANIZATION_ASSIGNMENT ( #76, #128, ( #160 ) ) ;
#170 = CARTESIAN_POINT ( 'NONE',  ( 1.000000000000000000, 0.0000000000000000000, 0.0000000000000000000 ) ) ;
#171 = PERSON_AND_ORGANIZATION ( #23, #163 ) ;
#172 = ORIENTED_EDGE ( 'NONE', *, *, #149, .T. ) ;
#173 = PERSON_AND_ORGANIZATION ( #23, #163 ) ;
#174 = SHAPE_DEFINITION_REPRESENTATION ( #140, #15 ) ;
#175 = PERSON_AND_ORGANIZATION_ROLE ( 'design_supplier' ) ;
ENDSEC;
END-ISO-10303-21;
