ISO-10303-21;
HEADER;
FILE_DESCRIPTION (( 'STEP AP203' ),
    '1' );
FILE_NAME ('Web Model 46102_46102.step',
    '2017-03-01T20:54:43',
    ( '' ),
    ( '' ),
    'SwSTEP 2.0',
    'SolidWorks 2016',
    '' );
FILE_SCHEMA (( 'CONFIG_CONTROL_DESIGN' ));
ENDSEC;

DATA;
#1 = DIRECTION ( 'NONE',  ( 0.0000000000000000000, 0.0000000000000000000, 1.000000000000000000 ) ) ;
#2 = CARTESIAN_POINT ( 'NONE',  ( -38.10000000000000100, 0.0000000000000000000, 3.000000000000000000 ) ) ;
#3 = DIRECTION ( 'NONE',  ( 1.000000000000000000, 0.0000000000000000000, 0.0000000000000000000 ) ) ;
#4 = DIRECTION ( 'NONE',  ( 1.000000000000000000, 0.0000000000000000000, -0.0000000000000000000 ) ) ;
#5 =( LENGTH_UNIT ( ) NAMED_UNIT ( * ) SI_UNIT ( .MILLI., .METRE. ) );
#6 = APPLICATION_PROTOCOL_DEFINITION ( 'international standard', 'config_control_design', 1994, #20 ) ;
#7 = APPROVAL_STATUS ( 'not_yet_approved' ) ;
#8 = EDGE_CURVE ( 'NONE', #106, #122, #11, .T. ) ;
#9 = ADVANCED_FACE ( 'NONE', ( #27 ), #87, .T. ) ;
#10 = DATE_AND_TIME ( #139, #123 ) ;
#11 = CIRCLE ( 'NONE', #107, 38.10000000000000100 ) ;
#12 = EDGE_LOOP ( 'NONE', ( #170, #131 ) ) ;
#13 = PERSON ( 'UNSPECIFIED', 'UNSPECIFIED', 'UNSPECIFIED', ('UNSPECIFIED'), ('UNSPECIFIED'), ('UNSPECIFIED') ) ;
#14 = COORDINATED_UNIVERSAL_TIME_OFFSET ( 5, 0, .BEHIND. ) ;
#15 = ADVANCED_BREP_SHAPE_REPRESENTATION ( 'Web Model 46102_46102', ( #21, #75 ), #41 ) ;
#16 = PERSON_AND_ORGANIZATION ( #13, #112 ) ;
#17 = DIRECTION ( 'NONE',  ( -0.0000000000000000000, -0.0000000000000000000, -1.000000000000000000 ) ) ;
#18 = PLANE ( 'NONE',  #33 ) ;
#19 = APPLICATION_PROTOCOL_DEFINITION ( 'international standard', 'config_control_design', 1994, #83 ) ;
#20 = APPLICATION_CONTEXT ( 'configuration controlled 3d designs of mechanical parts and assemblies' ) ;
#21 = MANIFOLD_SOLID_BREP ( 'Boss-Extrude1', #44 ) ;
#22 = CIRCLE ( 'NONE', #40, 38.10000000000000100 ) ;
#23 = AXIS2_PLACEMENT_3D ( 'NONE', #146, #95, #80 ) ;
#24 = ORIENTED_EDGE ( 'NONE', *, *, #103, .T. ) ;
#25 = CIRCLE ( 'NONE', #141, 38.10000000000000100 ) ;
#26 = CC_DESIGN_PERSON_AND_ORGANIZATION_ASSIGNMENT ( #42, #32, ( #138 ) ) ;
#27 = FACE_OUTER_BOUND ( 'NONE', #90, .T. ) ;
#28 = PERSON_AND_ORGANIZATION ( #13, #112 ) ;
#29 = CARTESIAN_POINT ( 'NONE',  ( 0.0000000000000000000, 0.0000000000000000000, 0.0000000000000000000 ) ) ;
#30 = LOCAL_TIME ( 15, 54, 43.00000000000000000, #55 ) ;
#31 = CARTESIAN_POINT ( 'NONE',  ( 0.0000000000000000000, 0.0000000000000000000, 0.0000000000000000000 ) ) ;
#32 = PERSON_AND_ORGANIZATION_ROLE ( 'creator' ) ;
#33 = AXIS2_PLACEMENT_3D ( 'NONE', #145, #137, #161 ) ;
#34 = DIRECTION ( 'NONE',  ( 1.000000000000000000, 0.0000000000000000000, 0.0000000000000000000 ) ) ;
#35 = APPROVAL_ROLE ( '' ) ;
#36 = DIRECTION ( 'NONE',  ( 1.000000000000000000, 0.0000000000000000000, 0.0000000000000000000 ) ) ;
#37 = CALENDAR_DATE ( 2017, 1, 3 ) ;
#38 = CC_DESIGN_PERSON_AND_ORGANIZATION_ASSIGNMENT ( #28, #148, ( #138 ) ) ;
#39 = CIRCLE ( 'NONE', #67, 38.10000000000000100 ) ;
#40 = AXIS2_PLACEMENT_3D ( 'NONE', #117, #108, #115 ) ;
#41 =( GEOMETRIC_REPRESENTATION_CONTEXT ( 3 ) GLOBAL_UNCERTAINTY_ASSIGNED_CONTEXT ( ( #49 ) ) GLOBAL_UNIT_ASSIGNED_CONTEXT ( ( #5, #74, #73 ) ) REPRESENTATION_CONTEXT ( 'NONE', 'WORKASPACE' ) );
#42 = PERSON_AND_ORGANIZATION ( #13, #112 ) ;
#43 = ADVANCED_FACE ( 'NONE', ( #164 ), #81, .T. ) ;
#44 = CLOSED_SHELL ( 'NONE', ( #9, #79, #43, #169 ) ) ;
#45 = SECURITY_CLASSIFICATION ( '', '', #99 ) ;
#46 = AXIS2_PLACEMENT_3D ( 'NONE', #147, #144, #135 ) ;
#47 = MECHANICAL_CONTEXT ( 'NONE', #20, 'mechanical' ) ;
#48 = DIRECTION ( 'NONE',  ( -0.0000000000000000000, -0.0000000000000000000, -1.000000000000000000 ) ) ;
#49 = UNCERTAINTY_MEASURE_WITH_UNIT (LENGTH_MEASURE( 1.000000000000000100E-005 ), #5, 'distance_accuracy_value', 'NONE');
#50 = DATE_TIME_ROLE ( 'creation_date' ) ;
#51 = ORIENTED_EDGE ( 'NONE', *, *, #173, .F. ) ;
#52 = VERTEX_POINT ( 'NONE', #159 ) ;
#53 = CC_DESIGN_PERSON_AND_ORGANIZATION_ASSIGNMENT ( #57, #97, ( #45 ) ) ;
#54 = DESIGN_CONTEXT ( 'detailed design', #83, 'design' ) ;
#55 = COORDINATED_UNIVERSAL_TIME_OFFSET ( 5, 0, .BEHIND. ) ;
#56 = ORIENTED_EDGE ( 'NONE', *, *, #85, .T. ) ;
#57 = PERSON_AND_ORGANIZATION ( #13, #112 ) ;
#58 = DIRECTION ( 'NONE',  ( 0.0000000000000000000, 0.0000000000000000000, 1.000000000000000000 ) ) ;
#59 = DIRECTION ( 'NONE',  ( 0.0000000000000000000, 0.0000000000000000000, 1.000000000000000000 ) ) ;
#60 = DIRECTION ( 'NONE',  ( 0.0000000000000000000, 0.0000000000000000000, 1.000000000000000000 ) ) ;
#61 = EDGE_LOOP ( 'NONE', ( #158, #51, #113, #167 ) ) ;
#62 = VECTOR ( 'NONE', #17, 1000.000000000000000 ) ;
#63 = CC_DESIGN_DATE_AND_TIME_ASSIGNMENT ( #160, #120, ( #45 ) ) ;
#64 = FACE_OUTER_BOUND ( 'NONE', #61, .T. ) ;
#65 = SHAPE_DEFINITION_REPRESENTATION ( #124, #15 ) ;
#66 = CALENDAR_DATE ( 2017, 1, 3 ) ;
#67 = AXIS2_PLACEMENT_3D ( 'NONE', #118, #150, #36 ) ;
#68 = PERSON_AND_ORGANIZATION ( #13, #112 ) ;
#69 = COORDINATED_UNIVERSAL_TIME_OFFSET ( 5, 0, .BEHIND. ) ;
#70 = APPROVAL ( #121, 'UNSPECIFIED' ) ;
#71 = CARTESIAN_POINT ( 'NONE',  ( -38.10000000000000100, 0.0000000000000000000, 0.0000000000000000000 ) ) ;
#72 = EDGE_CURVE ( 'NONE', #52, #122, #127, .T. ) ;
#73 =( NAMED_UNIT ( * ) SI_UNIT ( $, .STERADIAN. ) SOLID_ANGLE_UNIT ( ) );
#74 =( NAMED_UNIT ( * ) PLANE_ANGLE_UNIT ( ) SI_UNIT ( $, .RADIAN. ) );
#75 = AXIS2_PLACEMENT_3D ( 'NONE', #31, #60, #34 ) ;
#76 = CC_DESIGN_APPROVAL ( #70, ( #45 ) ) ;
#77 = APPROVAL_PERSON_ORGANIZATION ( #68, #102, #165 ) ;
#78 = ORIENTED_EDGE ( 'NONE', *, *, #96, .F. ) ;
#79 = ADVANCED_FACE ( 'NONE', ( #64 ), #88, .T. ) ;
#80 = DIRECTION ( 'NONE',  ( -1.000000000000000000, 0.0000000000000000000, 0.0000000000000000000 ) ) ;
#81 = PLANE ( 'NONE',  #174 ) ;
#82 = CC_DESIGN_PERSON_AND_ORGANIZATION_ASSIGNMENT ( #166, #111, ( #175 ) ) ;
#83 = APPLICATION_CONTEXT ( 'configuration controlled 3d designs of mechanical parts and assemblies' ) ;
#84 = CC_DESIGN_SECURITY_CLASSIFICATION ( #45, ( #138 ) ) ;
#85 = EDGE_CURVE ( 'NONE', #52, #136, #25, .T. ) ;
#86 = APPROVAL_DATE_TIME ( #94, #70 ) ;
#87 = CYLINDRICAL_SURFACE ( 'NONE', #46, 38.10000000000000100 ) ;
#88 = CYLINDRICAL_SURFACE ( 'NONE', #23, 38.10000000000000100 ) ;
#89 = PRODUCT_DEFINITION ( 'UNKNOWN', '', #138, #54 ) ;
#90 = EDGE_LOOP ( 'NONE', ( #152, #151, #24, #78 ) ) ;
#91 = LINE ( 'NONE', #2, #171 ) ;
#92 = LOCAL_TIME ( 15, 54, 43.00000000000000000, #140 ) ;
#93 = PRODUCT_RELATED_PRODUCT_CATEGORY ( 'detail', '', ( #175 ) ) ;
#94 = DATE_AND_TIME ( #125, #116 ) ;
#95 = DIRECTION ( 'NONE',  ( -0.0000000000000000000, -0.0000000000000000000, -1.000000000000000000 ) ) ;
#96 = EDGE_CURVE ( 'NONE', #136, #106, #91, .T. ) ;
#97 = PERSON_AND_ORGANIZATION_ROLE ( 'classification_officer' ) ;
#98 = APPROVAL_ROLE ( '' ) ;
#99 = SECURITY_CLASSIFICATION_LEVEL ( 'unclassified' ) ;
#100 = APPROVAL_PERSON_ORGANIZATION ( #16, #143, #35 ) ;
#101 = COORDINATED_UNIVERSAL_TIME_OFFSET ( 5, 0, .BEHIND. ) ;
#102 = APPROVAL ( #163, 'UNSPECIFIED' ) ;
#103 = EDGE_CURVE ( 'NONE', #122, #106, #22, .T. ) ;
#104 = DIRECTION ( 'NONE',  ( 1.000000000000000000, 0.0000000000000000000, 0.0000000000000000000 ) ) ;
#105 = DATE_AND_TIME ( #66, #129 ) ;
#106 = VERTEX_POINT ( 'NONE', #71 ) ;
#107 = AXIS2_PLACEMENT_3D ( 'NONE', #29, #1, #104 ) ;
#108 = DIRECTION ( 'NONE',  ( 0.0000000000000000000, 0.0000000000000000000, 1.000000000000000000 ) ) ;
#109 = CARTESIAN_POINT ( 'NONE',  ( 38.10000000000000100, 4.665904304751416100E-015, 0.0000000000000000000 ) ) ;
#110 = CC_DESIGN_APPROVAL ( #102, ( #89 ) ) ;
#111 = PERSON_AND_ORGANIZATION_ROLE ( 'design_owner' ) ;
#112 = ORGANIZATION ( 'UNSPECIFIED', 'UNSPECIFIED', '' ) ;
#113 = ORIENTED_EDGE ( 'NONE', *, *, #96, .T. ) ;
#114 = CC_DESIGN_PERSON_AND_ORGANIZATION_ASSIGNMENT ( #156, #134, ( #89 ) ) ;
#115 = DIRECTION ( 'NONE',  ( 1.000000000000000000, 0.0000000000000000000, 0.0000000000000000000 ) ) ;
#116 = LOCAL_TIME ( 15, 54, 43.00000000000000000, #101 ) ;
#117 = CARTESIAN_POINT ( 'NONE',  ( 0.0000000000000000000, 0.0000000000000000000, 0.0000000000000000000 ) ) ;
#118 = CARTESIAN_POINT ( 'NONE',  ( 0.0000000000000000000, 0.0000000000000000000, 3.000000000000000000 ) ) ;
#119 = CARTESIAN_POINT ( 'NONE',  ( -38.10000000000000100, 0.0000000000000000000, 3.000000000000000000 ) ) ;
#120 = DATE_TIME_ROLE ( 'classification_date' ) ;
#121 = APPROVAL_STATUS ( 'not_yet_approved' ) ;
#122 = VERTEX_POINT ( 'NONE', #109 ) ;
#123 = LOCAL_TIME ( 15, 54, 43.00000000000000000, #14 ) ;
#124 = PRODUCT_DEFINITION_SHAPE ( 'NONE', 'NONE',  #89 ) ;
#125 = CALENDAR_DATE ( 2017, 1, 3 ) ;
#126 = CC_DESIGN_DATE_AND_TIME_ASSIGNMENT ( #142, #50, ( #89 ) ) ;
#127 = LINE ( 'NONE', #149, #62 ) ;
#128 = FACE_OUTER_BOUND ( 'NONE', #12, .T. ) ;
#129 = LOCAL_TIME ( 15, 54, 43.00000000000000000, #69 ) ;
#130 = APPROVAL_PERSON_ORGANIZATION ( #168, #70, #98 ) ;
#131 = ORIENTED_EDGE ( 'NONE', *, *, #103, .F. ) ;
#132 = APPROVAL_DATE_TIME ( #10, #102 ) ;
#133 = CARTESIAN_POINT ( 'NONE',  ( 0.0000000000000000000, 0.0000000000000000000, 3.000000000000000000 ) ) ;
#134 = PERSON_AND_ORGANIZATION_ROLE ( 'creator' ) ;
#135 = DIRECTION ( 'NONE',  ( -1.000000000000000000, 0.0000000000000000000, 0.0000000000000000000 ) ) ;
#136 = VERTEX_POINT ( 'NONE', #119 ) ;
#137 = DIRECTION ( 'NONE',  ( 0.0000000000000000000, 0.0000000000000000000, 1.000000000000000000 ) ) ;
#138 = PRODUCT_DEFINITION_FORMATION_WITH_SPECIFIED_SOURCE ( 'ANY', '', #175, .NOT_KNOWN. ) ;
#139 = CALENDAR_DATE ( 2017, 1, 3 ) ;
#140 = COORDINATED_UNIVERSAL_TIME_OFFSET ( 5, 0, .BEHIND. ) ;
#141 = AXIS2_PLACEMENT_3D ( 'NONE', #133, #58, #3 ) ;
#142 = DATE_AND_TIME ( #37, #92 ) ;
#143 = APPROVAL ( #7, 'UNSPECIFIED' ) ;
#144 = DIRECTION ( 'NONE',  ( -0.0000000000000000000, -0.0000000000000000000, -1.000000000000000000 ) ) ;
#145 = CARTESIAN_POINT ( 'NONE',  ( 0.0000000000000000000, 0.0000000000000000000, 0.0000000000000000000 ) ) ;
#146 = CARTESIAN_POINT ( 'NONE',  ( 0.0000000000000000000, 0.0000000000000000000, 3.000000000000000000 ) ) ;
#147 = CARTESIAN_POINT ( 'NONE',  ( 0.0000000000000000000, 0.0000000000000000000, 3.000000000000000000 ) ) ;
#148 = PERSON_AND_ORGANIZATION_ROLE ( 'design_supplier' ) ;
#149 = CARTESIAN_POINT ( 'NONE',  ( 38.10000000000000100, 4.665904304751416100E-015, 3.000000000000000000 ) ) ;
#150 = DIRECTION ( 'NONE',  ( 0.0000000000000000000, 0.0000000000000000000, 1.000000000000000000 ) ) ;
#151 = ORIENTED_EDGE ( 'NONE', *, *, #72, .T. ) ;
#152 = ORIENTED_EDGE ( 'NONE', *, *, #85, .F. ) ;
#153 = CC_DESIGN_APPROVAL ( #143, ( #138 ) ) ;
#154 = EDGE_LOOP ( 'NONE', ( #155, #56 ) ) ;
#155 = ORIENTED_EDGE ( 'NONE', *, *, #173, .T. ) ;
#156 = PERSON_AND_ORGANIZATION ( #13, #112 ) ;
#157 = CALENDAR_DATE ( 2017, 1, 3 ) ;
#158 = ORIENTED_EDGE ( 'NONE', *, *, #72, .F. ) ;
#159 = CARTESIAN_POINT ( 'NONE',  ( 38.10000000000000100, 4.665904304751416100E-015, 3.000000000000000000 ) ) ;
#160 = DATE_AND_TIME ( #157, #30 ) ;
#161 = DIRECTION ( 'NONE',  ( 1.000000000000000000, 0.0000000000000000000, -0.0000000000000000000 ) ) ;
#162 = CARTESIAN_POINT ( 'NONE',  ( 0.0000000000000000000, 0.0000000000000000000, 3.000000000000000000 ) ) ;
#163 = APPROVAL_STATUS ( 'not_yet_approved' ) ;
#164 = FACE_OUTER_BOUND ( 'NONE', #154, .T. ) ;
#165 = APPROVAL_ROLE ( '' ) ;
#166 = PERSON_AND_ORGANIZATION ( #13, #112 ) ;
#167 = ORIENTED_EDGE ( 'NONE', *, *, #8, .T. ) ;
#168 = PERSON_AND_ORGANIZATION ( #13, #112 ) ;
#169 = ADVANCED_FACE ( 'NONE', ( #128 ), #18, .F. ) ;
#170 = ORIENTED_EDGE ( 'NONE', *, *, #8, .F. ) ;
#171 = VECTOR ( 'NONE', #48, 1000.000000000000000 ) ;
#172 = APPROVAL_DATE_TIME ( #105, #143 ) ;
#173 = EDGE_CURVE ( 'NONE', #136, #52, #39, .T. ) ;
#174 = AXIS2_PLACEMENT_3D ( 'NONE', #162, #59, #4 ) ;
#175 = PRODUCT ( 'Web Model 46102_46102', 'Web Model 46102_46102', '', ( #47 ) ) ;
ENDSEC;
END-ISO-10303-21;
