ISO-10303-21;
HEADER;
FILE_DESCRIPTION (( 'STEP AP203' ),
    '1' );
FILE_NAME ('Web Model 68521.STEP',
    '2017-02-01T13:26:57',
    ( '' ),
    ( '' ),
    'SwSTEP 2.0',
    'SolidWorks 2016',
    '' );
FILE_SCHEMA (( 'CONFIG_CONTROL_DESIGN' ));
ENDSEC;

DATA;
#1 = DIRECTION ( 'NONE',  ( 0.0000000000000000000, 1.000000000000000000, 0.0000000000000000000 ) ) ;
#2 = COORDINATED_UNIVERSAL_TIME_OFFSET ( 5, 0, .BEHIND. ) ;
#3 = DATE_TIME_ROLE ( 'creation_date' ) ;
#4 = APPROVAL_ROLE ( '' ) ;
#5 = PERSON_AND_ORGANIZATION ( #6, #144 ) ;
#6 = PERSON ( 'UNSPECIFIED', 'UNSPECIFIED', 'UNSPECIFIED', ('UNSPECIFIED'), ('UNSPECIFIED'), ('UNSPECIFIED') ) ;
#7 = DATE_AND_TIME ( #97, #25 ) ;
#8 = DESIGN_CONTEXT ( 'detailed design', #29, 'design' ) ;
#9 = ORIENTED_EDGE ( 'NONE', *, *, #120, .F. ) ;
#10 = PRODUCT_RELATED_PRODUCT_CATEGORY ( 'detail', '', ( #105 ) ) ;
#11 = PERSON_AND_ORGANIZATION ( #6, #144 ) ;
#12 =( NAMED_UNIT ( * ) SI_UNIT ( $, .STERADIAN. ) SOLID_ANGLE_UNIT ( ) );
#13 = DIRECTION ( 'NONE',  ( 0.0000000000000000000, -0.0000000000000000000, 1.000000000000000000 ) ) ;
#14 = CIRCLE ( 'NONE', #140, 5.000000000000000900 ) ;
#15 = DIRECTION ( 'NONE',  ( -0.0000000000000000000, -1.000000000000000000, -0.0000000000000000000 ) ) ;
#16 = CC_DESIGN_PERSON_AND_ORGANIZATION_ASSIGNMENT ( #42, #86, ( #132 ) ) ;
#17 = APPROVAL_STATUS ( 'not_yet_approved' ) ;
#18 = ADVANCED_FACE ( 'NONE', ( #172 ), #44, .F. ) ;
#19 = APPROVAL_PERSON_ORGANIZATION ( #163, #165, #61 ) ;
#20 = APPROVAL_PERSON_ORGANIZATION ( #168, #91, #4 ) ;
#21 = EDGE_CURVE ( 'NONE', #26, #117, #22, .T. ) ;
#22 = CIRCLE ( 'NONE', #41, 5.000000000000000900 ) ;
#23 = CARTESIAN_POINT ( 'NONE',  ( 6.123233995736767300E-016, 0.0000000000000000000, 5.000000000000000900 ) ) ;
#24 = LOCAL_TIME ( 8, 26, 57.00000000000000000, #75 ) ;
#25 = LOCAL_TIME ( 8, 26, 57.00000000000000000, #152 ) ;
#26 = VERTEX_POINT ( 'NONE', #139 ) ;
#27 = CARTESIAN_POINT ( 'NONE',  ( 6.123233995736767300E-016, 1.500000000000000000, 5.000000000000000900 ) ) ;
#28 = LINE ( 'NONE', #27, #112 ) ;
#29 = APPLICATION_CONTEXT ( 'configuration controlled 3d designs of mechanical parts and assemblies' ) ;
#30 = LINE ( 'NONE', #82, #175 ) ;
#31 = CC_DESIGN_PERSON_AND_ORGANIZATION_ASSIGNMENT ( #5, #170, ( #59 ) ) ;
#32 = COORDINATED_UNIVERSAL_TIME_OFFSET ( 5, 0, .BEHIND. ) ;
#33 = ORIENTED_EDGE ( 'NONE', *, *, #124, .T. ) ;
#34 = AXIS2_PLACEMENT_3D ( 'NONE', #108, #45, #60 ) ;
#35 = CC_DESIGN_PERSON_AND_ORGANIZATION_ASSIGNMENT ( #11, #102, ( #105 ) ) ;
#36 = LOCAL_TIME ( 8, 26, 57.00000000000000000, #2 ) ;
#37 = CC_DESIGN_APPROVAL ( #165, ( #132 ) ) ;
#38 = PLANE ( 'NONE',  #149 ) ;
#39 = PERSON_AND_ORGANIZATION ( #6, #144 ) ;
#40 = DIRECTION ( 'NONE',  ( 0.0000000000000000000, -0.0000000000000000000, 1.000000000000000000 ) ) ;
#41 = AXIS2_PLACEMENT_3D ( 'NONE', #147, #106, #67 ) ;
#42 = PERSON_AND_ORGANIZATION ( #6, #144 ) ;
#43 = ORIENTED_EDGE ( 'NONE', *, *, #63, .F. ) ;
#44 = PLANE ( 'NONE',  #89 ) ;
#45 = DIRECTION ( 'NONE',  ( -0.0000000000000000000, -1.000000000000000000, -0.0000000000000000000 ) ) ;
#46 = PERSON_AND_ORGANIZATION ( #6, #144 ) ;
#47 = APPROVAL_STATUS ( 'not_yet_approved' ) ;
#48 = PRODUCT_DEFINITION ( 'UNKNOWN', '', #132, #8 ) ;
#49 = CC_DESIGN_PERSON_AND_ORGANIZATION_ASSIGNMENT ( #39, #62, ( #132 ) ) ;
#50 = SHAPE_DEFINITION_REPRESENTATION ( #138, #96 ) ;
#51 = DATE_AND_TIME ( #92, #36 ) ;
#52 = CARTESIAN_POINT ( 'NONE',  ( 0.0000000000000000000, 1.500000000000000000, 0.0000000000000000000 ) ) ;
#53 =( LENGTH_UNIT ( ) NAMED_UNIT ( * ) SI_UNIT ( .MILLI., .METRE. ) );
#54 = ORIENTED_EDGE ( 'NONE', *, *, #63, .T. ) ;
#55 = DIRECTION ( 'NONE',  ( 0.0000000000000000000, 1.000000000000000000, 0.0000000000000000000 ) ) ;
#56 = APPROVAL_DATE_TIME ( #128, #91 ) ;
#57 = CC_DESIGN_APPROVAL ( #109, ( #48 ) ) ;
#58 = ORIENTED_EDGE ( 'NONE', *, *, #124, .F. ) ;
#59 = SECURITY_CLASSIFICATION ( '', '', #101 ) ;
#60 = DIRECTION ( 'NONE',  ( 0.0000000000000000000, 0.0000000000000000000, -1.000000000000000000 ) ) ;
#61 = APPROVAL_ROLE ( '' ) ;
#62 = PERSON_AND_ORGANIZATION_ROLE ( 'creator' ) ;
#63 = EDGE_CURVE ( 'NONE', #164, #119, #107, .T. ) ;
#64 = ORIENTED_EDGE ( 'NONE', *, *, #21, .T. ) ;
#65 = CC_DESIGN_DATE_AND_TIME_ASSIGNMENT ( #51, #154, ( #59 ) ) ;
#66 = CC_DESIGN_PERSON_AND_ORGANIZATION_ASSIGNMENT ( #46, #115, ( #48 ) ) ;
#67 = DIRECTION ( 'NONE',  ( 0.0000000000000000000, 0.0000000000000000000, 1.000000000000000000 ) ) ;
#68 =( NAMED_UNIT ( * ) PLANE_ANGLE_UNIT ( ) SI_UNIT ( $, .RADIAN. ) );
#69 = FACE_OUTER_BOUND ( 'NONE', #123, .T. ) ;
#70 = ORIENTED_EDGE ( 'NONE', *, *, #111, .F. ) ;
#71 = CARTESIAN_POINT ( 'NONE',  ( 0.0000000000000000000, 1.500000000000000000, 0.0000000000000000000 ) ) ;
#72 = ORIENTED_EDGE ( 'NONE', *, *, #171, .F. ) ;
#73 = PERSON_AND_ORGANIZATION ( #6, #144 ) ;
#74 = CARTESIAN_POINT ( 'NONE',  ( 0.0000000000000000000, 0.0000000000000000000, 0.0000000000000000000 ) ) ;
#75 = COORDINATED_UNIVERSAL_TIME_OFFSET ( 5, 0, .BEHIND. ) ;
#76 = UNCERTAINTY_MEASURE_WITH_UNIT (LENGTH_MEASURE( 1.000000000000000100E-005 ), #53, 'distance_accuracy_value', 'NONE');
#77 = AXIS2_PLACEMENT_3D ( 'NONE', #121, #122, #136 ) ;
#78 = LOCAL_TIME ( 8, 26, 57.00000000000000000, #32 ) ;
#79 = APPROVAL_DATE_TIME ( #116, #165 ) ;
#80 = CLOSED_SHELL ( 'NONE', ( #113, #127, #88, #18 ) ) ;
#81 = APPROVAL_DATE_TIME ( #7, #109 ) ;
#82 = CARTESIAN_POINT ( 'NONE',  ( 0.0000000000000000000, 1.500000000000000000, -5.000000000000000900 ) ) ;
#83 = DIRECTION ( 'NONE',  ( 0.0000000000000000000, 0.0000000000000000000, 1.000000000000000000 ) ) ;
#84 = ORIENTED_EDGE ( 'NONE', *, *, #111, .T. ) ;
#85 = CARTESIAN_POINT ( 'NONE',  ( 0.0000000000000000000, 0.0000000000000000000, -5.000000000000000900 ) ) ;
#86 = PERSON_AND_ORGANIZATION_ROLE ( 'design_supplier' ) ;
#87 = APPROVAL_ROLE ( '' ) ;
#88 = ADVANCED_FACE ( 'NONE', ( #69 ), #38, .T. ) ;
#89 = AXIS2_PLACEMENT_3D ( 'NONE', #153, #161, #13 ) ;
#90 = CYLINDRICAL_SURFACE ( 'NONE', #133, 5.000000000000000900 ) ;
#91 = APPROVAL ( #17, 'UNSPECIFIED' ) ;
#92 = CALENDAR_DATE ( 2017, 1, 2 ) ;
#93 = FACE_OUTER_BOUND ( 'NONE', #159, .T. ) ;
#94 = DIRECTION ( 'NONE',  ( -0.0000000000000000000, -1.000000000000000000, -0.0000000000000000000 ) ) ;
#95 = CALENDAR_DATE ( 2017, 1, 2 ) ;
#96 = ADVANCED_BREP_SHAPE_REPRESENTATION ( 'Web Model 68521', ( #141, #104 ), #174 ) ;
#97 = CALENDAR_DATE ( 2017, 1, 2 ) ;
#98 = ORIENTED_EDGE ( 'NONE', *, *, #21, .F. ) ;
#99 = DIRECTION ( 'NONE',  ( 0.0000000000000000000, 0.0000000000000000000, 1.000000000000000000 ) ) ;
#100 = CC_DESIGN_APPROVAL ( #91, ( #59 ) ) ;
#101 = SECURITY_CLASSIFICATION_LEVEL ( 'unclassified' ) ;
#102 = PERSON_AND_ORGANIZATION_ROLE ( 'design_owner' ) ;
#103 = MECHANICAL_CONTEXT ( 'NONE', #114, 'mechanical' ) ;
#104 = AXIS2_PLACEMENT_3D ( 'NONE', #74, #83, #129 ) ;
#105 = PRODUCT ( 'Web Model 68521', 'Web Model 68521', '', ( #103 ) ) ;
#106 = DIRECTION ( 'NONE',  ( 0.0000000000000000000, 1.000000000000000000, 0.0000000000000000000 ) ) ;
#107 = CIRCLE ( 'NONE', #77, 5.000000000000000900 ) ;
#108 = CARTESIAN_POINT ( 'NONE',  ( 0.0000000000000000000, 1.500000000000000000, 0.0000000000000000000 ) ) ;
#109 = APPROVAL ( #167, 'UNSPECIFIED' ) ;
#110 = DIRECTION ( 'NONE',  ( -0.0000000000000000000, -1.000000000000000000, -0.0000000000000000000 ) ) ;
#111 = EDGE_CURVE ( 'NONE', #117, #164, #28, .T. ) ;
#112 = VECTOR ( 'NONE', #110, 1000.000000000000000 ) ;
#113 = ADVANCED_FACE ( 'NONE', ( #143 ), #90, .T. ) ;
#114 = APPLICATION_CONTEXT ( 'configuration controlled 3d designs of mechanical parts and assemblies' ) ;
#115 = PERSON_AND_ORGANIZATION_ROLE ( 'creator' ) ;
#116 = DATE_AND_TIME ( #131, #78 ) ;
#117 = VERTEX_POINT ( 'NONE', #151 ) ;
#118 = CC_DESIGN_SECURITY_CLASSIFICATION ( #59, ( #132 ) ) ;
#119 = VERTEX_POINT ( 'NONE', #85 ) ;
#120 = EDGE_CURVE ( 'NONE', #26, #119, #30, .T. ) ;
#121 = CARTESIAN_POINT ( 'NONE',  ( 0.0000000000000000000, 0.0000000000000000000, 0.0000000000000000000 ) ) ;
#122 = DIRECTION ( 'NONE',  ( 0.0000000000000000000, 1.000000000000000000, 0.0000000000000000000 ) ) ;
#123 = EDGE_LOOP ( 'NONE', ( #64, #158 ) ) ;
#124 = EDGE_CURVE ( 'NONE', #119, #164, #14, .T. ) ;
#125 = EDGE_LOOP ( 'NONE', ( #58, #43 ) ) ;
#126 = DIRECTION ( 'NONE',  ( 0.0000000000000000000, 0.0000000000000000000, -1.000000000000000000 ) ) ;
#127 = ADVANCED_FACE ( 'NONE', ( #93 ), #155, .T. ) ;
#128 = DATE_AND_TIME ( #95, #134 ) ;
#129 = DIRECTION ( 'NONE',  ( 1.000000000000000000, 0.0000000000000000000, 0.0000000000000000000 ) ) ;
#130 = ORIENTED_EDGE ( 'NONE', *, *, #120, .T. ) ;
#131 = CALENDAR_DATE ( 2017, 1, 2 ) ;
#132 = PRODUCT_DEFINITION_FORMATION_WITH_SPECIFIED_SOURCE ( 'ANY', '', #105, .NOT_KNOWN. ) ;
#133 = AXIS2_PLACEMENT_3D ( 'NONE', #71, #94, #126 ) ;
#134 = LOCAL_TIME ( 8, 26, 57.00000000000000000, #162 ) ;
#135 = EDGE_LOOP ( 'NONE', ( #72, #84, #54, #9 ) ) ;
#136 = DIRECTION ( 'NONE',  ( 0.0000000000000000000, 0.0000000000000000000, 1.000000000000000000 ) ) ;
#137 = CIRCLE ( 'NONE', #157, 5.000000000000000900 ) ;
#138 = PRODUCT_DEFINITION_SHAPE ( 'NONE', 'NONE',  #48 ) ;
#139 = CARTESIAN_POINT ( 'NONE',  ( 0.0000000000000000000, 1.500000000000000000, -5.000000000000000900 ) ) ;
#140 = AXIS2_PLACEMENT_3D ( 'NONE', #166, #1, #99 ) ;
#141 = MANIFOLD_SOLID_BREP ( 'Extrude1', #80 ) ;
#142 = APPLICATION_PROTOCOL_DEFINITION ( 'international standard', 'config_control_design', 1994, #114 ) ;
#143 = FACE_OUTER_BOUND ( 'NONE', #135, .T. ) ;
#144 = ORGANIZATION ( 'UNSPECIFIED', 'UNSPECIFIED', '' ) ;
#145 = APPROVAL_PERSON_ORGANIZATION ( #73, #109, #87 ) ;
#146 = CALENDAR_DATE ( 2017, 1, 2 ) ;
#147 = CARTESIAN_POINT ( 'NONE',  ( 0.0000000000000000000, 1.500000000000000000, 0.0000000000000000000 ) ) ;
#148 = CARTESIAN_POINT ( 'NONE',  ( 0.0000000000000000000, 1.500000000000000000, 0.0000000000000000000 ) ) ;
#149 = AXIS2_PLACEMENT_3D ( 'NONE', #148, #55, #40 ) ;
#150 = DATE_AND_TIME ( #146, #24 ) ;
#151 = CARTESIAN_POINT ( 'NONE',  ( 6.123233995736767300E-016, 1.500000000000000000, 5.000000000000000900 ) ) ;
#152 = COORDINATED_UNIVERSAL_TIME_OFFSET ( 5, 0, .BEHIND. ) ;
#153 = CARTESIAN_POINT ( 'NONE',  ( 0.0000000000000000000, 0.0000000000000000000, 0.0000000000000000000 ) ) ;
#154 = DATE_TIME_ROLE ( 'classification_date' ) ;
#155 = CYLINDRICAL_SURFACE ( 'NONE', #34, 5.000000000000000900 ) ;
#156 = CC_DESIGN_DATE_AND_TIME_ASSIGNMENT ( #150, #3, ( #48 ) ) ;
#157 = AXIS2_PLACEMENT_3D ( 'NONE', #52, #160, #173 ) ;
#158 = ORIENTED_EDGE ( 'NONE', *, *, #171, .T. ) ;
#159 = EDGE_LOOP ( 'NONE', ( #70, #98, #130, #33 ) ) ;
#160 = DIRECTION ( 'NONE',  ( 0.0000000000000000000, 1.000000000000000000, 0.0000000000000000000 ) ) ;
#161 = DIRECTION ( 'NONE',  ( 0.0000000000000000000, 1.000000000000000000, 0.0000000000000000000 ) ) ;
#162 = COORDINATED_UNIVERSAL_TIME_OFFSET ( 5, 0, .BEHIND. ) ;
#163 = PERSON_AND_ORGANIZATION ( #6, #144 ) ;
#164 = VERTEX_POINT ( 'NONE', #23 ) ;
#165 = APPROVAL ( #47, 'UNSPECIFIED' ) ;
#166 = CARTESIAN_POINT ( 'NONE',  ( 0.0000000000000000000, 0.0000000000000000000, 0.0000000000000000000 ) ) ;
#167 = APPROVAL_STATUS ( 'not_yet_approved' ) ;
#168 = PERSON_AND_ORGANIZATION ( #6, #144 ) ;
#169 = APPLICATION_PROTOCOL_DEFINITION ( 'international standard', 'config_control_design', 1994, #29 ) ;
#170 = PERSON_AND_ORGANIZATION_ROLE ( 'classification_officer' ) ;
#171 = EDGE_CURVE ( 'NONE', #117, #26, #137, .T. ) ;
#172 = FACE_OUTER_BOUND ( 'NONE', #125, .T. ) ;
#173 = DIRECTION ( 'NONE',  ( 0.0000000000000000000, 0.0000000000000000000, 1.000000000000000000 ) ) ;
#174 =( GEOMETRIC_REPRESENTATION_CONTEXT ( 3 ) GLOBAL_UNCERTAINTY_ASSIGNED_CONTEXT ( ( #76 ) ) GLOBAL_UNIT_ASSIGNED_CONTEXT ( ( #53, #68, #12 ) ) REPRESENTATION_CONTEXT ( 'NONE', 'WORKASPACE' ) );
#175 = VECTOR ( 'NONE', #15, 1000.000000000000000 ) ;
ENDSEC;
END-ISO-10303-21;
