ISO-10303-21;
HEADER;
FILE_DESCRIPTION (( 'STEP AP203' ),
    '1' );
FILE_NAME ('Web Model 68528.STEP',
    '2017-02-01T13:28:26',
    ( '' ),
    ( '' ),
    'SwSTEP 2.0',
    'SolidWorks 2016',
    '' );
FILE_SCHEMA (( 'CONFIG_CONTROL_DESIGN' ));
ENDSEC;

DATA;
#1 = PERSON_AND_ORGANIZATION_ROLE ( 'design_supplier' ) ;
#2 = COORDINATED_UNIVERSAL_TIME_OFFSET ( 5, 0, .BEHIND. ) ;
#3 = AXIS2_PLACEMENT_3D ( 'NONE', #157, #59, #129 ) ;
#4 = ADVANCED_FACE ( 'NONE', ( #172 ), #81, .T. ) ;
#5 = LOCAL_TIME ( 8, 28, 26.00000000000000000, #142 ) ;
#6 = VECTOR ( 'NONE', #51, 1000.000000000000000 ) ;
#7 = CC_DESIGN_SECURITY_CLASSIFICATION ( #138, ( #152 ) ) ;
#8 = DIRECTION ( 'NONE',  ( 0.0000000000000000000, 1.000000000000000000, 0.0000000000000000000 ) ) ;
#9 = CARTESIAN_POINT ( 'NONE',  ( 0.0000000000000000000, 0.0000000000000000000, 0.0000000000000000000 ) ) ;
#10 = LOCAL_TIME ( 8, 28, 26.00000000000000000, #16 ) ;
#11 = PERSON_AND_ORGANIZATION_ROLE ( 'design_owner' ) ;
#12 = DIRECTION ( 'NONE',  ( 0.0000000000000000000, -0.0000000000000000000, 1.000000000000000000 ) ) ;
#13 = AXIS2_PLACEMENT_3D ( 'NONE', #71, #8, #141 ) ;
#14 = VERTEX_POINT ( 'NONE', #83 ) ;
#15 = EDGE_CURVE ( 'NONE', #14, #125, #77, .T. ) ;
#16 = COORDINATED_UNIVERSAL_TIME_OFFSET ( 5, 0, .BEHIND. ) ;
#17 = APPROVAL_DATE_TIME ( #153, #114 ) ;
#18 = AXIS2_PLACEMENT_3D ( 'NONE', #131, #160, #12 ) ;
#19 = FACE_OUTER_BOUND ( 'NONE', #47, .T. ) ;
#20 = APPROVAL_PERSON_ORGANIZATION ( #58, #99, #175 ) ;
#21 = LINE ( 'NONE', #117, #6 ) ;
#22 = CARTESIAN_POINT ( 'NONE',  ( 0.0000000000000000000, 1.000000000000000000, 0.0000000000000000000 ) ) ;
#23 = AXIS2_PLACEMENT_3D ( 'NONE', #96, #27, #100 ) ;
#24 = APPLICATION_PROTOCOL_DEFINITION ( 'international standard', 'config_control_design', 1994, #171 ) ;
#25 = CALENDAR_DATE ( 2017, 1, 2 ) ;
#26 = CC_DESIGN_DATE_AND_TIME_ASSIGNMENT ( #122, #30, ( #138 ) ) ;
#27 = DIRECTION ( 'NONE',  ( -0.0000000000000000000, -1.000000000000000000, -0.0000000000000000000 ) ) ;
#28 = ORIENTED_EDGE ( 'NONE', *, *, #108, .T. ) ;
#29 = APPROVAL_STATUS ( 'not_yet_approved' ) ;
#30 = DATE_TIME_ROLE ( 'classification_date' ) ;
#31 = PERSON_AND_ORGANIZATION ( #155, #127 ) ;
#32 = CYLINDRICAL_SURFACE ( 'NONE', #23, 25.00000000000000000 ) ;
#33 = AXIS2_PLACEMENT_3D ( 'NONE', #22, #118, #44 ) ;
#34 = ADVANCED_FACE ( 'NONE', ( #112 ), #61, .T. ) ;
#35 = EDGE_LOOP ( 'NONE', ( #116, #37 ) ) ;
#36 = CLOSED_SHELL ( 'NONE', ( #34, #89, #4, #149 ) ) ;
#37 = ORIENTED_EDGE ( 'NONE', *, *, #108, .F. ) ;
#38 = CC_DESIGN_PERSON_AND_ORGANIZATION_ASSIGNMENT ( #66, #135, ( #98 ) ) ;
#39 = CALENDAR_DATE ( 2017, 1, 2 ) ;
#40 = DIRECTION ( 'NONE',  ( 0.0000000000000000000, 0.0000000000000000000, 1.000000000000000000 ) ) ;
#41 = CARTESIAN_POINT ( 'NONE',  ( 0.0000000000000000000, 1.000000000000000000, 0.0000000000000000000 ) ) ;
#42 = CARTESIAN_POINT ( 'NONE',  ( 0.0000000000000000000, 0.0000000000000000000, 0.0000000000000000000 ) ) ;
#43 = AXIS2_PLACEMENT_3D ( 'NONE', #170, #128, #156 ) ;
#44 = DIRECTION ( 'NONE',  ( 0.0000000000000000000, 0.0000000000000000000, 1.000000000000000000 ) ) ;
#45 = PERSON_AND_ORGANIZATION_ROLE ( 'classification_officer' ) ;
#46 = APPROVAL_PERSON_ORGANIZATION ( #163, #48, #126 ) ;
#47 = EDGE_LOOP ( 'NONE', ( #86, #137, #67, #73 ) ) ;
#48 = APPROVAL ( #29, 'UNSPECIFIED' ) ;
#49 =( GEOMETRIC_REPRESENTATION_CONTEXT ( 3 ) GLOBAL_UNCERTAINTY_ASSIGNED_CONTEXT ( ( #87 ) ) GLOBAL_UNIT_ASSIGNED_CONTEXT ( ( #57, #52, #119 ) ) REPRESENTATION_CONTEXT ( 'NONE', 'WORKASPACE' ) );
#50 = COORDINATED_UNIVERSAL_TIME_OFFSET ( 5, 0, .BEHIND. ) ;
#51 = DIRECTION ( 'NONE',  ( -0.0000000000000000000, -1.000000000000000000, -0.0000000000000000000 ) ) ;
#52 =( NAMED_UNIT ( * ) PLANE_ANGLE_UNIT ( ) SI_UNIT ( $, .RADIAN. ) );
#53 = DIRECTION ( 'NONE',  ( -0.0000000000000000000, -1.000000000000000000, -0.0000000000000000000 ) ) ;
#54 = DIRECTION ( 'NONE',  ( 0.0000000000000000000, 1.000000000000000000, 0.0000000000000000000 ) ) ;
#55 = CARTESIAN_POINT ( 'NONE',  ( 0.0000000000000000000, 1.000000000000000000, -25.00000000000000000 ) ) ;
#56 = CC_DESIGN_APPROVAL ( #99, ( #98 ) ) ;
#57 =( LENGTH_UNIT ( ) NAMED_UNIT ( * ) SI_UNIT ( .MILLI., .METRE. ) );
#58 = PERSON_AND_ORGANIZATION ( #155, #127 ) ;
#59 = DIRECTION ( 'NONE',  ( 0.0000000000000000000, 1.000000000000000000, 0.0000000000000000000 ) ) ;
#60 = DATE_TIME_ROLE ( 'creation_date' ) ;
#61 = CYLINDRICAL_SURFACE ( 'NONE', #103, 25.00000000000000000 ) ;
#62 = CC_DESIGN_PERSON_AND_ORGANIZATION_ASSIGNMENT ( #93, #11, ( #124 ) ) ;
#63 = AXIS2_PLACEMENT_3D ( 'NONE', #9, #40, #78 ) ;
#64 = ORIENTED_EDGE ( 'NONE', *, *, #15, .F. ) ;
#65 = CC_DESIGN_PERSON_AND_ORGANIZATION_ASSIGNMENT ( #31, #45, ( #138 ) ) ;
#66 = PERSON_AND_ORGANIZATION ( #155, #127 ) ;
#67 = ORIENTED_EDGE ( 'NONE', *, *, #15, .T. ) ;
#68 = DIRECTION ( 'NONE',  ( -0.0000000000000000000, -1.000000000000000000, -0.0000000000000000000 ) ) ;
#69 = DIRECTION ( 'NONE',  ( 0.0000000000000000000, 0.0000000000000000000, 1.000000000000000000 ) ) ;
#70 = VERTEX_POINT ( 'NONE', #132 ) ;
#71 = CARTESIAN_POINT ( 'NONE',  ( 0.0000000000000000000, 1.000000000000000000, 0.0000000000000000000 ) ) ;
#72 = EDGE_CURVE ( 'NONE', #125, #79, #107, .T. ) ;
#73 = ORIENTED_EDGE ( 'NONE', *, *, #72, .T. ) ;
#74 = FACE_OUTER_BOUND ( 'NONE', #35, .T. ) ;
#75 = CC_DESIGN_APPROVAL ( #48, ( #138 ) ) ;
#76 = COORDINATED_UNIVERSAL_TIME_OFFSET ( 5, 0, .BEHIND. ) ;
#77 = LINE ( 'NONE', #55, #91 ) ;
#78 = DIRECTION ( 'NONE',  ( 1.000000000000000000, 0.0000000000000000000, 0.0000000000000000000 ) ) ;
#79 = VERTEX_POINT ( 'NONE', #173 ) ;
#80 = APPLICATION_CONTEXT ( 'configuration controlled 3d designs of mechanical parts and assemblies' ) ;
#81 = PLANE ( 'NONE',  #18 ) ;
#82 = LOCAL_TIME ( 8, 28, 26.00000000000000000, #76 ) ;
#83 = CARTESIAN_POINT ( 'NONE',  ( 0.0000000000000000000, 1.000000000000000000, -25.00000000000000000 ) ) ;
#84 = PRODUCT_RELATED_PRODUCT_CATEGORY ( 'detail', '', ( #124 ) ) ;
#85 = CALENDAR_DATE ( 2017, 1, 2 ) ;
#86 = ORIENTED_EDGE ( 'NONE', *, *, #111, .F. ) ;
#87 = UNCERTAINTY_MEASURE_WITH_UNIT (LENGTH_MEASURE( 1.000000000000000100E-005 ), #57, 'distance_accuracy_value', 'NONE');
#88 = PERSON_AND_ORGANIZATION ( #155, #127 ) ;
#89 = ADVANCED_FACE ( 'NONE', ( #19 ), #32, .T. ) ;
#90 = DATE_AND_TIME ( #139, #5 ) ;
#91 = VECTOR ( 'NONE', #68, 1000.000000000000000 ) ;
#92 = PRODUCT_DEFINITION_SHAPE ( 'NONE', 'NONE',  #98 ) ;
#93 = PERSON_AND_ORGANIZATION ( #155, #127 ) ;
#94 = PLANE ( 'NONE',  #43 ) ;
#95 = APPROVAL_DATE_TIME ( #90, #48 ) ;
#96 = CARTESIAN_POINT ( 'NONE',  ( 0.0000000000000000000, 1.000000000000000000, 0.0000000000000000000 ) ) ;
#97 = ORIENTED_EDGE ( 'NONE', *, *, #148, .T. ) ;
#98 = PRODUCT_DEFINITION ( 'UNKNOWN', '', #152, #164 ) ;
#99 = APPROVAL ( #161, 'UNSPECIFIED' ) ;
#100 = DIRECTION ( 'NONE',  ( 0.0000000000000000000, 0.0000000000000000000, -1.000000000000000000 ) ) ;
#101 = PERSON_AND_ORGANIZATION ( #155, #127 ) ;
#102 = APPROVAL_ROLE ( '' ) ;
#103 = AXIS2_PLACEMENT_3D ( 'NONE', #41, #53, #120 ) ;
#104 = DATE_AND_TIME ( #39, #82 ) ;
#105 = EDGE_LOOP ( 'NONE', ( #166, #167, #28, #64 ) ) ;
#106 = SHAPE_DEFINITION_REPRESENTATION ( #92, #162 ) ;
#107 = CIRCLE ( 'NONE', #168, 25.00000000000000000 ) ;
#108 = EDGE_CURVE ( 'NONE', #79, #125, #150, .T. ) ;
#109 = CC_DESIGN_DATE_AND_TIME_ASSIGNMENT ( #104, #60, ( #98 ) ) ;
#110 = ORIENTED_EDGE ( 'NONE', *, *, #158, .T. ) ;
#111 = EDGE_CURVE ( 'NONE', #70, #79, #21, .T. ) ;
#112 = FACE_OUTER_BOUND ( 'NONE', #105, .T. ) ;
#113 = APPROVAL_STATUS ( 'not_yet_approved' ) ;
#114 = APPROVAL ( #113, 'UNSPECIFIED' ) ;
#115 = APPROVAL_DATE_TIME ( #146, #99 ) ;
#116 = ORIENTED_EDGE ( 'NONE', *, *, #72, .F. ) ;
#117 = CARTESIAN_POINT ( 'NONE',  ( 3.061616997868383000E-015, 1.000000000000000000, 25.00000000000000000 ) ) ;
#118 = DIRECTION ( 'NONE',  ( 0.0000000000000000000, 1.000000000000000000, 0.0000000000000000000 ) ) ;
#119 =( NAMED_UNIT ( * ) SI_UNIT ( $, .STERADIAN. ) SOLID_ANGLE_UNIT ( ) );
#120 = DIRECTION ( 'NONE',  ( 0.0000000000000000000, 0.0000000000000000000, -1.000000000000000000 ) ) ;
#121 = CC_DESIGN_PERSON_AND_ORGANIZATION_ASSIGNMENT ( #88, #123, ( #152 ) ) ;
#122 = DATE_AND_TIME ( #85, #159 ) ;
#123 = PERSON_AND_ORGANIZATION_ROLE ( 'creator' ) ;
#124 = PRODUCT ( 'Web Model 68528', 'Web Model 68528', '', ( #134 ) ) ;
#125 = VERTEX_POINT ( 'NONE', #154 ) ;
#126 = APPROVAL_ROLE ( '' ) ;
#127 = ORGANIZATION ( 'UNSPECIFIED', 'UNSPECIFIED', '' ) ;
#128 = DIRECTION ( 'NONE',  ( 0.0000000000000000000, 1.000000000000000000, 0.0000000000000000000 ) ) ;
#129 = DIRECTION ( 'NONE',  ( 0.0000000000000000000, 0.0000000000000000000, 1.000000000000000000 ) ) ;
#130 = APPROVAL_PERSON_ORGANIZATION ( #136, #114, #102 ) ;
#131 = CARTESIAN_POINT ( 'NONE',  ( 0.0000000000000000000, 1.000000000000000000, 0.0000000000000000000 ) ) ;
#132 = CARTESIAN_POINT ( 'NONE',  ( 3.061616997868383000E-015, 1.000000000000000000, 25.00000000000000000 ) ) ;
#133 = CIRCLE ( 'NONE', #33, 25.00000000000000000 ) ;
#134 = MECHANICAL_CONTEXT ( 'NONE', #171, 'mechanical' ) ;
#135 = PERSON_AND_ORGANIZATION_ROLE ( 'creator' ) ;
#136 = PERSON_AND_ORGANIZATION ( #155, #127 ) ;
#137 = ORIENTED_EDGE ( 'NONE', *, *, #158, .F. ) ;
#138 = SECURITY_CLASSIFICATION ( '', '', #145 ) ;
#139 = CALENDAR_DATE ( 2017, 1, 2 ) ;
#140 = MANIFOLD_SOLID_BREP ( 'Extrude1', #36 ) ;
#141 = DIRECTION ( 'NONE',  ( 0.0000000000000000000, 0.0000000000000000000, 1.000000000000000000 ) ) ;
#142 = COORDINATED_UNIVERSAL_TIME_OFFSET ( 5, 0, .BEHIND. ) ;
#143 = CALENDAR_DATE ( 2017, 1, 2 ) ;
#144 = APPLICATION_PROTOCOL_DEFINITION ( 'international standard', 'config_control_design', 1994, #80 ) ;
#145 = SECURITY_CLASSIFICATION_LEVEL ( 'unclassified' ) ;
#146 = DATE_AND_TIME ( #25, #10 ) ;
#147 = EDGE_LOOP ( 'NONE', ( #110, #97 ) ) ;
#148 = EDGE_CURVE ( 'NONE', #70, #14, #169, .T. ) ;
#149 = ADVANCED_FACE ( 'NONE', ( #74 ), #94, .F. ) ;
#150 = CIRCLE ( 'NONE', #3, 25.00000000000000000 ) ;
#151 = LOCAL_TIME ( 8, 28, 26.00000000000000000, #2 ) ;
#152 = PRODUCT_DEFINITION_FORMATION_WITH_SPECIFIED_SOURCE ( 'ANY', '', #124, .NOT_KNOWN. ) ;
#153 = DATE_AND_TIME ( #143, #151 ) ;
#154 = CARTESIAN_POINT ( 'NONE',  ( 0.0000000000000000000, 0.0000000000000000000, -25.00000000000000000 ) ) ;
#155 = PERSON ( 'UNSPECIFIED', 'UNSPECIFIED', 'UNSPECIFIED', ('UNSPECIFIED'), ('UNSPECIFIED'), ('UNSPECIFIED') ) ;
#156 = DIRECTION ( 'NONE',  ( 0.0000000000000000000, -0.0000000000000000000, 1.000000000000000000 ) ) ;
#157 = CARTESIAN_POINT ( 'NONE',  ( 0.0000000000000000000, 0.0000000000000000000, 0.0000000000000000000 ) ) ;
#158 = EDGE_CURVE ( 'NONE', #14, #70, #133, .T. ) ;
#159 = LOCAL_TIME ( 8, 28, 26.00000000000000000, #50 ) ;
#160 = DIRECTION ( 'NONE',  ( 0.0000000000000000000, 1.000000000000000000, 0.0000000000000000000 ) ) ;
#161 = APPROVAL_STATUS ( 'not_yet_approved' ) ;
#162 = ADVANCED_BREP_SHAPE_REPRESENTATION ( 'Web Model 68528', ( #140, #63 ), #49 ) ;
#163 = PERSON_AND_ORGANIZATION ( #155, #127 ) ;
#164 = DESIGN_CONTEXT ( 'detailed design', #80, 'design' ) ;
#165 = CC_DESIGN_APPROVAL ( #114, ( #152 ) ) ;
#166 = ORIENTED_EDGE ( 'NONE', *, *, #148, .F. ) ;
#167 = ORIENTED_EDGE ( 'NONE', *, *, #111, .T. ) ;
#168 = AXIS2_PLACEMENT_3D ( 'NONE', #42, #54, #69 ) ;
#169 = CIRCLE ( 'NONE', #13, 25.00000000000000000 ) ;
#170 = CARTESIAN_POINT ( 'NONE',  ( 0.0000000000000000000, 0.0000000000000000000, 0.0000000000000000000 ) ) ;
#171 = APPLICATION_CONTEXT ( 'configuration controlled 3d designs of mechanical parts and assemblies' ) ;
#172 = FACE_OUTER_BOUND ( 'NONE', #147, .T. ) ;
#173 = CARTESIAN_POINT ( 'NONE',  ( 3.061616997868383000E-015, 0.0000000000000000000, 25.00000000000000000 ) ) ;
#174 = CC_DESIGN_PERSON_AND_ORGANIZATION_ASSIGNMENT ( #101, #1, ( #152 ) ) ;
#175 = APPROVAL_ROLE ( '' ) ;
ENDSEC;
END-ISO-10303-21;
