ISO-10303-21;
HEADER;
FILE_DESCRIPTION (( 'STEP AP203' ),
    '1' );
FILE_NAME ('TTN049359-E0W.STEP',
    '2016-07-25T14:35:32',
    ( 'admin' ),
    ( '' ),
    'SwSTEP 2.0',
    'SolidWorks 2016',
    '' );
FILE_SCHEMA (( 'CONFIG_CONTROL_DESIGN' ));
ENDSEC;

DATA;
#1 = EDGE_LOOP ( 'NONE', ( #178, #32, #43, #244 ) ) ;
#2 = DATE_AND_TIME ( #62, #121 ) ;
#3 = ORIENTED_EDGE ( 'NONE', *, *, #141, .F. ) ;
#4 = PERSON_AND_ORGANIZATION ( #136, #276 ) ;
#5 = CC_DESIGN_PERSON_AND_ORGANIZATION_ASSIGNMENT ( #52, #126, ( #298 ) ) ;
#6 = DIRECTION ( 'NONE',  ( 8.189143055648163600E-017, -0.6686942766967390900, -0.7435374666504875900 ) ) ;
#7 = AXIS2_PLACEMENT_3D ( 'NONE', #299, #159, #17 ) ;
#8 =( CONVERSION_BASED_UNIT ( 'INCH', #70 ) LENGTH_UNIT ( ) NAMED_UNIT ( #131 ) );
#9 = APPLICATION_PROTOCOL_DEFINITION ( 'international standard', 'config_control_design', 1994, #154 ) ;
#10 = APPROVAL_ROLE ( '' ) ;
#11 = ORIENTED_EDGE ( 'NONE', *, *, #76, .F. ) ;
#12 = LINE ( 'NONE', #300, #199 ) ;
#13 = PERSON_AND_ORGANIZATION ( #136, #276 ) ;
#14 = ADVANCED_FACE ( 'NONE', ( #95 ), #112, .T. ) ;
#15 = CARTESIAN_POINT ( 'NONE',  ( 0.0000000000000000000, 1.764590257870039600E-017, -0.04606299212598425500 ) ) ;
#16 = DIRECTION ( 'NONE',  ( 0.0000000000000000000, 1.000000000000000000, 3.173274651177087800E-016 ) ) ;
#17 = DIRECTION ( 'NONE',  ( 0.0000000000000000000, 1.000000000000000000, 3.073328992872299300E-016 ) ) ;
#18 = DIRECTION ( 'NONE',  ( -0.0000000000000000000, 3.061515884555990500E-016, -1.000000000000000000 ) ) ;
#19 = MANIFOLD_SOLID_BREP ( 'TTN049360-1-solid1', #192 ) ;
#20 = ORIENTED_EDGE ( 'NONE', *, *, #76, .T. ) ;
#21 = DIRECTION ( 'NONE',  ( 1.000000000000000000, 0.0000000000000000000, -0.0000000000000000000 ) ) ;
#22 = CARTESIAN_POINT ( 'NONE',  ( 0.0000000000000000000, 1.764590257870040200E-017, -0.04606299212598428900 ) ) ;
#23 = VECTOR ( 'NONE', #87, 39.37007874015748100 ) ;
#24 = EDGE_LOOP ( 'NONE', ( #11, #227, #84, #185 ) ) ;
#25 = COORDINATED_UNIVERSAL_TIME_OFFSET ( 5, 0, .BEHIND. ) ;
#26 = VERTEX_POINT ( 'NONE', #124 ) ;
#27 = CC_DESIGN_DATE_AND_TIME_ASSIGNMENT ( #106, #293, ( #298 ) ) ;
#28 = EDGE_LOOP ( 'NONE', ( #140, #72, #42 ) ) ;
#29 = DIRECTION ( 'NONE',  ( -0.0000000000000000000, 3.061515884555990500E-016, -1.000000000000000000 ) ) ;
#30 = AXIS2_PLACEMENT_3D ( 'NONE', #279, #183, #40 ) ;
#31 = CIRCLE ( 'NONE', #273, 0.2499999999999997500 ) ;
#32 = ORIENTED_EDGE ( 'NONE', *, *, #141, .T. ) ;
#33 = VERTEX_POINT ( 'NONE', #176 ) ;
#34 = DIRECTION ( 'NONE',  ( -0.0000000000000000000, 3.061515884555990500E-016, -1.000000000000000000 ) ) ;
#35 = EDGE_LOOP ( 'NONE', ( #260, #189 ) ) ;
#36 =( NAMED_UNIT ( * ) SI_UNIT ( $, .STERADIAN. ) SOLID_ANGLE_UNIT ( ) );
#37 = CONICAL_SURFACE ( 'NONE', #217, 0.2421259842519684100, 0.7853981633974501700 ) ;
#38 = APPROVAL_ROLE ( '' ) ;
#39 = DIRECTION ( 'NONE',  ( -1.000000000000000000, 0.0000000000000000000, 0.0000000000000000000 ) ) ;
#40 = DIRECTION ( 'NONE',  ( 0.0000000000000000000, 1.000000000000000000, 3.073328992872299300E-016 ) ) ;
#41 = APPROVAL ( #155, 'UNSPECIFIED' ) ;
#42 = ORIENTED_EDGE ( 'NONE', *, *, #133, .T. ) ;
#43 = ORIENTED_EDGE ( 'NONE', *, *, #93, .T. ) ;
#44 = EDGE_CURVE ( 'NONE', #228, #232, #74, .T. ) ;
#45 = AXIS2_PLACEMENT_3D ( 'NONE', #229, #107, #184 ) ;
#46 = FACE_OUTER_BOUND ( 'NONE', #270, .T. ) ;
#47 = CARTESIAN_POINT ( 'NONE',  ( 0.0000000000000000000, 2.790945378349189700E-016, -2.319212598425186600 ) ) ;
#48 = PERSON_AND_ORGANIZATION ( #136, #276 ) ;
#49 = DATE_AND_TIME ( #110, #171 ) ;
#50 = ORIENTED_EDGE ( 'NONE', *, *, #264, .F. ) ;
#51 = FACE_OUTER_BOUND ( 'NONE', #1, .T. ) ;
#52 = PERSON_AND_ORGANIZATION ( #136, #276 ) ;
#53 = CC_DESIGN_APPROVAL ( #41, ( #298 ) ) ;
#54 = ORIENTED_EDGE ( 'NONE', *, *, #197, .F. ) ;
#55 = CARTESIAN_POINT ( 'NONE',  ( 2.965888177914290000E-017, -0.2421831486416542400, 0.03363162543903332900 ) ) ;
#56 = DIRECTION ( 'NONE',  ( -0.0000000000000000000, 3.061515884555943100E-016, -1.000000000000000000 ) ) ;
#57 = AXIS2_PLACEMENT_3D ( 'NONE', #160, #18, #187 ) ;
#58 = EDGE_CURVE ( 'NONE', #265, #89, #301, .T. ) ;
#59 = APPLICATION_PROTOCOL_DEFINITION ( 'international standard', 'config_control_design', 1994, #79 ) ;
#60 = DATE_TIME_ROLE ( 'creation_date' ) ;
#61 = DIRECTION ( 'NONE',  ( 0.0000000000000000000, 1.000000000000000000, 3.073328992872299300E-016 ) ) ;
#62 = CALENDAR_DATE ( 2016, 25, 7 ) ;
#63 = ADVANCED_FACE ( 'NONE', ( #117 ), #243, .T. ) ;
#64 = EDGE_LOOP ( 'NONE', ( #3, #294, #158, #144 ) ) ;
#65 = EDGE_CURVE ( 'NONE', #146, #262, #236, .T. ) ;
#66 = DIRECTION ( 'NONE',  ( 0.0000000000000000000, -3.061515884555990500E-016, 1.000000000000000000 ) ) ;
#67 = CARTESIAN_POINT ( 'NONE',  ( 0.0000000000000000000, 2.790945378349189700E-016, -2.319212598425186600 ) ) ;
#68 = PRODUCT_DEFINITION_SHAPE ( 'NONE', 'NONE',  #139 ) ;
#69 = DATE_AND_TIME ( #129, #200 ) ;
#70 = LENGTH_MEASURE_WITH_UNIT ( LENGTH_MEASURE( 0.02539999999999999900 ), #151 );
#71 = CC_DESIGN_SECURITY_CLASSIFICATION ( #298, ( #219 ) ) ;
#72 = ORIENTED_EDGE ( 'NONE', *, *, #197, .T. ) ;
#73 = AXIS2_PLACEMENT_3D ( 'NONE', #257, #113, #282 ) ;
#74 = LINE ( 'NONE', #222, #240 ) ;
#75 = APPROVAL_DATE_TIME ( #138, #156 ) ;
#76 = EDGE_CURVE ( 'NONE', #146, #232, #179, .T. ) ;
#77 = DIRECTION ( 'NONE',  ( 0.0000000000000000000, -1.000000000000000000, -3.173274651177087800E-016 ) ) ;
#78 = CIRCLE ( 'NONE', #7, 0.2499999999999997500 ) ;
#79 = APPLICATION_CONTEXT ( 'configuration controlled 3d designs of mechanical parts and assemblies' ) ;
#80 = APPROVAL_ROLE ( '' ) ;
#81 = APPROVAL_PERSON_ORGANIZATION ( #145, #156, #38 ) ;
#82 = ADVANCED_FACE ( 'NONE', ( #51 ), #111, .T. ) ;
#83 = ORIENTED_EDGE ( 'NONE', *, *, #161, .F. ) ;
#84 = ORIENTED_EDGE ( 'NONE', *, *, #123, .T. ) ;
#85 = PRODUCT_RELATED_PRODUCT_CATEGORY ( 'detail', '', ( #285 ) ) ;
#86 = CONICAL_SURFACE ( 'NONE', #119, 0.2421259842519684100, 0.7853981633974501700 ) ;
#87 = DIRECTION ( 'NONE',  ( -0.0000000000000000000, 3.061515884555943100E-016, -1.000000000000000000 ) ) ;
#88 = AXIS2_PLACEMENT_3D ( 'NONE', #212, #66, #233 ) ;
#89 = VERTEX_POINT ( 'NONE', #255 ) ;
#90 = LINE ( 'NONE', #137, #267 ) ;
#91 = DIRECTION ( 'NONE',  ( -1.224646799147353500E-016, 1.000000000000000000, 0.0000000000000000000 ) ) ;
#92 = SPHERICAL_SURFACE ( 'NONE', #167, 2.365275590551174600 ) ;
#93 = EDGE_CURVE ( 'NONE', #33, #232, #78, .T. ) ;
#94 = CARTESIAN_POINT ( 'NONE',  ( 0.0000000000000000000, -4.091738854440272300E-018, 0.02493987786661641300 ) ) ;
#95 = FACE_OUTER_BOUND ( 'NONE', #201, .T. ) ;
#96 = DIRECTION ( 'NONE',  ( 0.0000000000000000000, 1.000000000000000000, 3.073328992872299300E-016 ) ) ;
#97 = CARTESIAN_POINT ( 'NONE',  ( 0.0000000000000000000, 0.2499999999999997500, -0.03818897637795289800 ) ) ;
#98 = APPROVAL_PERSON_ORGANIZATION ( #48, #41, #10 ) ;
#99 = DIRECTION ( 'NONE',  ( 0.0000000000000000000, -3.061515884555944100E-016, 1.000000000000000000 ) ) ;
#100 = AXIS2_PLACEMENT_3D ( 'NONE', #114, #286, #132 ) ;
#101 = DIRECTION ( 'NONE',  ( 0.0000000000000000000, 0.0000000000000000000, 1.000000000000000000 ) ) ;
#102 = PERSON_AND_ORGANIZATION_ROLE ( 'design_supplier' ) ;
#103 = ADVANCED_FACE ( 'NONE', ( #281 ), #175, .T. ) ;
#104 = AXIS2_PLACEMENT_3D ( 'NONE', #248, #101, #274 ) ;
#105 = CARTESIAN_POINT ( 'NONE',  ( 2.965188116045755600E-017, 0.2421259842519684300, -0.04606299212598421300 ) ) ;
#106 = DATE_AND_TIME ( #169, #238 ) ;
#107 = DIRECTION ( 'NONE',  ( 1.000000000000000000, 0.0000000000000000000, -0.0000000000000000000 ) ) ;
#108 = DIRECTION ( 'NONE',  ( -0.0000000000000000000, 3.061515884555990500E-016, -1.000000000000000000 ) ) ;
#109 = EDGE_CURVE ( 'NONE', #228, #26, #31, .T. ) ;
#110 = CALENDAR_DATE ( 2016, 25, 7 ) ;
#111 = CYLINDRICAL_SURFACE ( 'NONE', #30, 0.2499999999999997500 ) ;
#112 = CONICAL_SURFACE ( 'NONE', #241, 0.2499999999999997500, 0.7324513014470716000 ) ;
#113 = DIRECTION ( 'NONE',  ( 0.0000000000000000000, -3.061515884555990500E-016, 1.000000000000000000 ) ) ;
#114 = CARTESIAN_POINT ( 'NONE',  ( 0.0000000000000000000, 1.523526014991625600E-017, -0.03818897637795297400 ) ) ;
#115 = ORIENTED_EDGE ( 'NONE', *, *, #123, .F. ) ;
#116 = PERSON_AND_ORGANIZATION ( #136, #276 ) ;
#117 = FACE_OUTER_BOUND ( 'NONE', #64, .T. ) ;
#118 = EDGE_CURVE ( 'NONE', #26, #228, #194, .T. ) ;
#119 = AXIS2_PLACEMENT_3D ( 'NONE', #259, #210, #190 ) ;
#120 = ORIENTED_EDGE ( 'NONE', *, *, #109, .F. ) ;
#121 = LOCAL_TIME ( 10, 35, 32.00000000000000000, #195 ) ;
#122 = CC_DESIGN_PERSON_AND_ORGANIZATION_ASSIGNMENT ( #214, #292, ( #285 ) ) ;
#123 = EDGE_CURVE ( 'NONE', #262, #33, #12, .T. ) ;
#124 = CARTESIAN_POINT ( 'NONE',  ( 3.061616997868379900E-017, -0.2499999999999997500, 0.02493987786661633300 ) ) ;
#125 = MECHANICAL_CONTEXT ( 'NONE', #79, 'mechanical' ) ;
#126 = PERSON_AND_ORGANIZATION_ROLE ( 'classification_officer' ) ;
#127 = FACE_OUTER_BOUND ( 'NONE', #24, .T. ) ;
#128 = DIRECTION ( 'NONE',  ( -0.0000000000000000000, 3.061515884555943100E-016, -1.000000000000000000 ) ) ;
#129 = CALENDAR_DATE ( 2016, 25, 7 ) ;
#130 = DIRECTION ( 'NONE',  ( 8.659560562354950100E-017, 0.7071067811865486800, 0.7071067811865464600 ) ) ;
#131 = DIMENSIONAL_EXPONENTS ( 1.000000000000000000, 0.0000000000000000000, 0.0000000000000000000, 0.0000000000000000000, 0.0000000000000000000, 0.0000000000000000000, 0.0000000000000000000 ) ;
#132 = DIRECTION ( 'NONE',  ( 0.0000000000000000000, 1.000000000000000000, 3.073328992872299300E-016 ) ) ;
#133 = EDGE_CURVE ( 'NONE', #242, #89, #213, .T. ) ;
#134 = AXIS2_PLACEMENT_3D ( 'NONE', #67, #234, #91 ) ;
#135 = CIRCLE ( 'NONE', #88, 0.2421831486416537200 ) ;
#136 = PERSON ( 'UNSPECIFIED', 'UNSPECIFIED', 'UNSPECIFIED', ('UNSPECIFIED'), ('UNSPECIFIED'), ('UNSPECIFIED') ) ;
#137 = CARTESIAN_POINT ( 'NONE',  ( 0.0000000000000000000, 0.2499999999999997500, 0.02493987786661649000 ) ) ;
#138 = DATE_AND_TIME ( #205, #268 ) ;
#139 = PRODUCT_DEFINITION ( 'UNKNOWN', '', #219, #206 ) ;
#140 = ORIENTED_EDGE ( 'NONE', *, *, #58, .F. ) ;
#141 = EDGE_CURVE ( 'NONE', #26, #33, #252, .T. ) ;
#142 = VECTOR ( 'NONE', #130, 39.37007874015748100 ) ;
#143 = ORIENTED_EDGE ( 'NONE', *, *, #118, .F. ) ;
#144 = ORIENTED_EDGE ( 'NONE', *, *, #172, .T. ) ;
#145 = PERSON_AND_ORGANIZATION ( #136, #276 ) ;
#146 = VERTEX_POINT ( 'NONE', #162 ) ;
#147 = ORIENTED_EDGE ( 'NONE', *, *, #65, .F. ) ;
#148 = CIRCLE ( 'NONE', #134, 2.365275590551174600 ) ;
#149 = CARTESIAN_POINT ( 'NONE',  ( 0.0000000000000000000, -3.002069822940740300E-016, 0.04606299212598825200 ) ) ;
#150 = FACE_OUTER_BOUND ( 'NONE', #35, .T. ) ;
#151 =( LENGTH_UNIT ( ) NAMED_UNIT ( * ) SI_UNIT ( $, .METRE. ) );
#152 = AXIS2_PLACEMENT_3D ( 'NONE', #22, #153, #170 ) ;
#153 = DIRECTION ( 'NONE',  ( -0.0000000000000000000, 3.061515884555943100E-016, -1.000000000000000000 ) ) ;
#154 = APPLICATION_CONTEXT ( 'configuration controlled 3d designs of mechanical parts and assemblies' ) ;
#155 = APPROVAL_STATUS ( 'not_yet_approved' ) ;
#156 = APPROVAL ( #177, 'UNSPECIFIED' ) ;
#157 = DIRECTION ( 'NONE',  ( -0.0000000000000000000, 3.061515884555943100E-016, -1.000000000000000000 ) ) ;
#158 = ORIENTED_EDGE ( 'NONE', *, *, #44, .T. ) ;
#159 = DIRECTION ( 'NONE',  ( 0.0000000000000000000, -3.061515884555944100E-016, 1.000000000000000000 ) ) ;
#160 = CARTESIAN_POINT ( 'NONE',  ( 0.0000000000000000000, -4.091738854440351600E-018, 0.02493987786661641300 ) ) ;
#161 = EDGE_CURVE ( 'NONE', #89, #242, #135, .T. ) ;
#162 = CARTESIAN_POINT ( 'NONE',  ( 3.013402556957068100E-017, 0.2421259842519684300, -0.04606299212598421300 ) ) ;
#163 = DIRECTION ( 'NONE',  ( 0.0000000000000000000, 0.6686942766967395300, -0.7435374666504871400 ) ) ;
#164 = ADVANCED_BREP_SHAPE_REPRESENTATION ( 'TTN049359-E0W', ( #19, #104 ), #250 ) ;
#165 = FACE_OUTER_BOUND ( 'NONE', #303, .T. ) ;
#166 = ORIENTED_EDGE ( 'NONE', *, *, #133, .F. ) ;
#167 = AXIS2_PLACEMENT_3D ( 'NONE', #47, #21, #261 ) ;
#168 = CC_DESIGN_APPROVAL ( #156, ( #139 ) ) ;
#169 = CALENDAR_DATE ( 2016, 25, 7 ) ;
#170 = DIRECTION ( 'NONE',  ( 0.0000000000000000000, 1.000000000000000000, 3.173274651177087800E-016 ) ) ;
#171 = LOCAL_TIME ( 10, 35, 32.00000000000000000, #218 ) ;
#172 = EDGE_CURVE ( 'NONE', #232, #33, #224, .T. ) ;
#173 = CARTESIAN_POINT ( 'NONE',  ( 0.0000000000000000000, 1.764590257870040800E-017, -0.04606299212598428900 ) ) ;
#174 =( NAMED_UNIT ( * ) PLANE_ANGLE_UNIT ( ) SI_UNIT ( $, .RADIAN. ) );
#175 = SPHERICAL_SURFACE ( 'NONE', #45, 2.365275590551174600 ) ;
#176 = CARTESIAN_POINT ( 'NONE',  ( 3.061616997868379900E-017, -0.2499999999999997500, -0.03818897637795305000 ) ) ;
#177 = APPROVAL_STATUS ( 'not_yet_approved' ) ;
#178 = ORIENTED_EDGE ( 'NONE', *, *, #109, .T. ) ;
#179 = LINE ( 'NONE', #105, #142 ) ;
#180 = CARTESIAN_POINT ( 'NONE',  ( 0.0000000000000000000, 2.790945378349189700E-016, -2.319212598425186600 ) ) ;
#181 = ADVANCED_FACE ( 'NONE', ( #284 ), #86, .T. ) ;
#182 = PERSON_AND_ORGANIZATION ( #136, #276 ) ;
#183 = DIRECTION ( 'NONE',  ( -0.0000000000000000000, 3.061515884555943100E-016, -1.000000000000000000 ) ) ;
#184 = DIRECTION ( 'NONE',  ( 0.0000000000000000000, 1.000000000000000000, 3.464942526668953700E-016 ) ) ;
#185 = ORIENTED_EDGE ( 'NONE', *, *, #172, .F. ) ;
#186 = UNCERTAINTY_MEASURE_WITH_UNIT (LENGTH_MEASURE( 1.000000000000000100E-005 ), #8, 'distance_accuracy_value', 'NONE');
#187 = DIRECTION ( 'NONE',  ( 0.0000000000000000000, -1.000000000000000000, -3.073328992872299300E-016 ) ) ;
#188 = CIRCLE ( 'NONE', #152, 0.2421259842519684100 ) ;
#189 = ORIENTED_EDGE ( 'NONE', *, *, #65, .T. ) ;
#190 = DIRECTION ( 'NONE',  ( 0.0000000000000000000, -1.000000000000000000, -3.173274651177087800E-016 ) ) ;
#191 = AXIS2_PLACEMENT_3D ( 'NONE', #304, #34, #202 ) ;
#192 = CLOSED_SHELL ( 'NONE', ( #226, #181, #82, #103, #278, #207, #63, #295, #14 ) ) ;
#193 = CONICAL_SURFACE ( 'NONE', #191, 0.2499999999999997500, 0.7324513014470716000 ) ;
#194 = CIRCLE ( 'NONE', #57, 0.2499999999999997500 ) ;
#195 = COORDINATED_UNIVERSAL_TIME_OFFSET ( 5, 0, .BEHIND. ) ;
#196 = CC_DESIGN_PERSON_AND_ORGANIZATION_ASSIGNMENT ( #13, #204, ( #139 ) ) ;
#197 = EDGE_CURVE ( 'NONE', #265, #242, #148, .T. ) ;
#198 = LINE ( 'NONE', #220, #283 ) ;
#199 = VECTOR ( 'NONE', #230, 39.37007874015748900 ) ;
#200 = LOCAL_TIME ( 10, 35, 32.00000000000000000, #263 ) ;
#201 = EDGE_LOOP ( 'NONE', ( #50, #83, #237, #143 ) ) ;
#202 = DIRECTION ( 'NONE',  ( 0.0000000000000000000, 1.000000000000000000, 3.073328992872299300E-016 ) ) ;
#203 = PLANE ( 'NONE',  #235 ) ;
#204 = PERSON_AND_ORGANIZATION_ROLE ( 'creator' ) ;
#205 = CALENDAR_DATE ( 2016, 25, 7 ) ;
#206 = DESIGN_CONTEXT ( 'detailed design', #154, 'design' ) ;
#207 = ADVANCED_FACE ( 'NONE', ( #165 ), #92, .T. ) ;
#208 = DIRECTION ( 'NONE',  ( 0.0000000000000000000, 0.0000000000000000000, 1.000000000000000000 ) ) ;
#209 = CC_DESIGN_DATE_AND_TIME_ASSIGNMENT ( #69, #60, ( #139 ) ) ;
#210 = DIRECTION ( 'NONE',  ( 0.0000000000000000000, -3.061515884555944100E-016, 1.000000000000000000 ) ) ;
#211 = EDGE_CURVE ( 'NONE', #262, #146, #188, .T. ) ;
#212 = CARTESIAN_POINT ( 'NONE',  ( 0.0000000000000000000, -4.412324586896930900E-016, 0.03363162543903336400 ) ) ;
#213 = CIRCLE ( 'NONE', #73, 0.2421831486416537200 ) ;
#214 = PERSON_AND_ORGANIZATION ( #136, #276 ) ;
#215 = ORIENTED_EDGE ( 'NONE', *, *, #161, .T. ) ;
#216 = ORIENTED_EDGE ( 'NONE', *, *, #221, .F. ) ;
#217 = AXIS2_PLACEMENT_3D ( 'NONE', #247, #99, #77 ) ;
#218 = COORDINATED_UNIVERSAL_TIME_OFFSET ( 5, 0, .BEHIND. ) ;
#219 = PRODUCT_DEFINITION_FORMATION_WITH_SPECIFIED_SOURCE ( 'ANY', '', #285, .NOT_KNOWN. ) ;
#220 = CARTESIAN_POINT ( 'NONE',  ( 3.061616997868379900E-017, -0.2499999999999997500, 0.02493987786661633300 ) ) ;
#221 = EDGE_CURVE ( 'NONE', #89, #228, #90, .T. ) ;
#222 = CARTESIAN_POINT ( 'NONE',  ( 0.0000000000000000000, 0.2499999999999998100, -0.04606299212598417800 ) ) ;
#223 = DIRECTION ( 'NONE',  ( 0.0000000000000000000, 1.000000000000000000, 3.061515884555943100E-016 ) ) ;
#224 = CIRCLE ( 'NONE', #100, 0.2499999999999997500 ) ;
#225 = APPROVAL_STATUS ( 'not_yet_approved' ) ;
#226 = ADVANCED_FACE ( 'NONE', ( #46 ), #193, .T. ) ;
#227 = ORIENTED_EDGE ( 'NONE', *, *, #211, .F. ) ;
#228 = VERTEX_POINT ( 'NONE', #246 ) ;
#229 = CARTESIAN_POINT ( 'NONE',  ( 0.0000000000000000000, 2.790945378349189700E-016, -2.319212598425186600 ) ) ;
#230 = DIRECTION ( 'NONE',  ( 0.0000000000000000000, -0.7071067811865490200, 0.7071067811865459100 ) ) ;
#231 = CARTESIAN_POINT ( 'NONE',  ( 3.061616997868379900E-017, -0.2499999999999997200, -0.04606299212598433100 ) ) ;
#232 = VERTEX_POINT ( 'NONE', #97 ) ;
#233 = DIRECTION ( 'NONE',  ( 0.0000000000000000000, 1.000000000000000000, 2.996274213904013900E-016 ) ) ;
#234 = DIRECTION ( 'NONE',  ( 1.000000000000000000, 1.224646799147353200E-016, 3.749275628560213600E-032 ) ) ;
#235 = AXIS2_PLACEMENT_3D ( 'NONE', #173, #56, #223 ) ;
#236 = CIRCLE ( 'NONE', #288, 0.2421259842519684100 ) ;
#237 = ORIENTED_EDGE ( 'NONE', *, *, #221, .T. ) ;
#238 = LOCAL_TIME ( 10, 35, 32.00000000000000000, #297 ) ;
#239 = APPROVAL ( #225, 'UNSPECIFIED' ) ;
#240 = VECTOR ( 'NONE', #277, 39.37007874015748100 ) ;
#241 = AXIS2_PLACEMENT_3D ( 'NONE', #94, #29, #96 ) ;
#242 = VERTEX_POINT ( 'NONE', #55 ) ;
#243 = CYLINDRICAL_SURFACE ( 'NONE', #302, 0.2499999999999997500 ) ;
#244 = ORIENTED_EDGE ( 'NONE', *, *, #44, .F. ) ;
#245 = APPROVAL_DATE_TIME ( #2, #239 ) ;
#246 = CARTESIAN_POINT ( 'NONE',  ( 0.0000000000000000000, 0.2499999999999997500, 0.02493987786661649000 ) ) ;
#247 = CARTESIAN_POINT ( 'NONE',  ( 0.0000000000000000000, 1.764590257870040800E-017, -0.04606299212598428900 ) ) ;
#248 = CARTESIAN_POINT ( 'NONE',  ( 0.0000000000000000000, 0.0000000000000000000, 0.0000000000000000000 ) ) ;
#249 = ORIENTED_EDGE ( 'NONE', *, *, #58, .T. ) ;
#250 =( GEOMETRIC_REPRESENTATION_CONTEXT ( 3 ) GLOBAL_UNCERTAINTY_ASSIGNED_CONTEXT ( ( #186 ) ) GLOBAL_UNIT_ASSIGNED_CONTEXT ( ( #8, #174, #36 ) ) REPRESENTATION_CONTEXT ( 'NONE', 'WORKASPACE' ) );
#251 = PERSON_AND_ORGANIZATION_ROLE ( 'creator' ) ;
#252 = LINE ( 'NONE', #231, #23 ) ;
#253 = APPROVAL_PERSON_ORGANIZATION ( #4, #239, #80 ) ;
#254 = CC_DESIGN_APPROVAL ( #239, ( #219 ) ) ;
#255 = CARTESIAN_POINT ( 'NONE',  ( 0.0000000000000000000, 0.2421831486416533600, 0.03363162543903339800 ) ) ;
#256 = CARTESIAN_POINT ( 'NONE',  ( 0.0000000000000000000, -4.091738854440351600E-018, 0.02493987786661641300 ) ) ;
#257 = CARTESIAN_POINT ( 'NONE',  ( 0.0000000000000000000, -4.412324586896930900E-016, 0.03363162543903336400 ) ) ;
#258 = AXIS2_PLACEMENT_3D ( 'NONE', #180, #39, #208 ) ;
#259 = CARTESIAN_POINT ( 'NONE',  ( 0.0000000000000000000, 1.764590257870040800E-017, -0.04606299212598428900 ) ) ;
#260 = ORIENTED_EDGE ( 'NONE', *, *, #211, .T. ) ;
#261 = DIRECTION ( 'NONE',  ( 0.0000000000000000000, 1.000000000000000000, 3.464942526668953700E-016 ) ) ;
#262 = VERTEX_POINT ( 'NONE', #272 ) ;
#263 = COORDINATED_UNIVERSAL_TIME_OFFSET ( 5, 0, .BEHIND. ) ;
#264 = EDGE_CURVE ( 'NONE', #242, #26, #198, .T. ) ;
#265 = VERTEX_POINT ( 'NONE', #149 ) ;
#266 = ORIENTED_EDGE ( 'NONE', *, *, #264, .T. ) ;
#267 = VECTOR ( 'NONE', #163, 39.37007874015748100 ) ;
#268 = LOCAL_TIME ( 10, 35, 32.00000000000000000, #25 ) ;
#269 = CC_DESIGN_PERSON_AND_ORGANIZATION_ASSIGNMENT ( #182, #251, ( #219 ) ) ;
#270 = EDGE_LOOP ( 'NONE', ( #166, #266, #120, #216 ) ) ;
#271 = SHAPE_DEFINITION_REPRESENTATION ( #68, #164 ) ;
#272 = CARTESIAN_POINT ( 'NONE',  ( 0.0000000000000000000, -0.2421259842519683800, -0.04606299212598436600 ) ) ;
#273 = AXIS2_PLACEMENT_3D ( 'NONE', #256, #108, #280 ) ;
#274 = DIRECTION ( 'NONE',  ( 1.000000000000000000, 0.0000000000000000000, 0.0000000000000000000 ) ) ;
#275 = SECURITY_CLASSIFICATION_LEVEL ( 'unclassified' ) ;
#276 = ORGANIZATION ( 'UNSPECIFIED', 'UNSPECIFIED', '' ) ;
#277 = DIRECTION ( 'NONE',  ( -0.0000000000000000000, 3.061515884555943100E-016, -1.000000000000000000 ) ) ;
#278 = ADVANCED_FACE ( 'NONE', ( #150 ), #203, .T. ) ;
#279 = CARTESIAN_POINT ( 'NONE',  ( 0.0000000000000000000, 1.764590257870039600E-017, -0.04606299212598425500 ) ) ;
#280 = DIRECTION ( 'NONE',  ( 0.0000000000000000000, -1.000000000000000000, -3.073328992872299300E-016 ) ) ;
#281 = FACE_OUTER_BOUND ( 'NONE', #28, .T. ) ;
#282 = DIRECTION ( 'NONE',  ( 0.0000000000000000000, 1.000000000000000000, 2.996274213904013900E-016 ) ) ;
#283 = VECTOR ( 'NONE', #6, 39.37007874015748100 ) ;
#284 = FACE_OUTER_BOUND ( 'NONE', #291, .T. ) ;
#285 = PRODUCT ( 'TTN049359-E0W', 'TTN049359-E0W', '', ( #125 ) ) ;
#286 = DIRECTION ( 'NONE',  ( 0.0000000000000000000, -3.061515884555944100E-016, 1.000000000000000000 ) ) ;
#287 = CC_DESIGN_PERSON_AND_ORGANIZATION_ASSIGNMENT ( #116, #102, ( #219 ) ) ;
#288 = AXIS2_PLACEMENT_3D ( 'NONE', #296, #157, #16 ) ;
#289 = ORIENTED_EDGE ( 'NONE', *, *, #93, .F. ) ;
#290 = APPROVAL_DATE_TIME ( #49, #41 ) ;
#291 = EDGE_LOOP ( 'NONE', ( #147, #20, #289, #115 ) ) ;
#292 = PERSON_AND_ORGANIZATION_ROLE ( 'design_owner' ) ;
#293 = DATE_TIME_ROLE ( 'classification_date' ) ;
#294 = ORIENTED_EDGE ( 'NONE', *, *, #118, .T. ) ;
#295 = ADVANCED_FACE ( 'NONE', ( #127 ), #37, .T. ) ;
#296 = CARTESIAN_POINT ( 'NONE',  ( 0.0000000000000000000, 1.764590257870040200E-017, -0.04606299212598428900 ) ) ;
#297 = COORDINATED_UNIVERSAL_TIME_OFFSET ( 5, 0, .BEHIND. ) ;
#298 = SECURITY_CLASSIFICATION ( '', '', #275 ) ;
#299 = CARTESIAN_POINT ( 'NONE',  ( 0.0000000000000000000, 1.523526014991625600E-017, -0.03818897637795297400 ) ) ;
#300 = CARTESIAN_POINT ( 'NONE',  ( 0.0000000000000000000, -0.2421259842519683800, -0.04606299212598436600 ) ) ;
#301 = CIRCLE ( 'NONE', #258, 2.365275590551174600 ) ;
#302 = AXIS2_PLACEMENT_3D ( 'NONE', #15, #128, #61 ) ;
#303 = EDGE_LOOP ( 'NONE', ( #54, #249, #215 ) ) ;
#304 = CARTESIAN_POINT ( 'NONE',  ( 0.0000000000000000000, -4.091738854440272300E-018, 0.02493987786661641300 ) ) ;
ENDSEC;
END-ISO-10303-21;
