ISO-10303-21;
HEADER;
FILE_DESCRIPTION (( 'STEP AP214' ),
    '1' );
FILE_NAME ('21236.step',
    '2022-06-17T16:47:07',
    ( '' ),
    ( '' ),
    'SwSTEP 2.0',
    'SolidWorks 2021',
    '' );
FILE_SCHEMA (( 'AUTOMOTIVE_DESIGN' ));
ENDSEC;

DATA;
#1 = COLOUR_RGB ( '',0.7921568627450980005, 0.8196078431372548767, 0.9333333333333333481 ) ;
#2 = ORIENTED_EDGE ( 'NONE', *, *, #101, .F. ) ;
#3 = ORIENTED_EDGE ( 'NONE', *, *, #83, .T. ) ;
#4 = DIRECTION ( 'NONE',  ( 0.000000000000000000, 0.000000000000000000, 1.000000000000000000 ) ) ;
#5 = PLANE ( 'NONE',  #125 ) ;
#6 = CARTESIAN_POINT ( 'NONE',  ( 12.49999999999999645, 1.530808498934191127E-15, 2.000000000000000000 ) ) ;
#7 = EDGE_CURVE ( 'NONE', #46, #36, #136, .T. ) ;
#8 =( NAMED_UNIT ( * ) SI_UNIT ( $, .STERADIAN. ) SOLID_ANGLE_UNIT ( ) );
#9 = CARTESIAN_POINT ( 'NONE',  ( -12.49999999999999645, 0.000000000000000000, 2.000000000000000000 ) ) ;
#10 = DIRECTION ( 'NONE',  ( -1.000000000000000000, 0.000000000000000000, 0.000000000000000000 ) ) ;
#11 = CARTESIAN_POINT ( 'NONE',  ( 0.000000000000000000, 0.000000000000000000, 2.000000000000000000 ) ) ;
#12 =( GEOMETRIC_REPRESENTATION_CONTEXT ( 3 ) GLOBAL_UNCERTAINTY_ASSIGNED_CONTEXT ( ( #47 ) ) GLOBAL_UNIT_ASSIGNED_CONTEXT ( ( #100, #18, #75 ) ) REPRESENTATION_CONTEXT ( 'NONE', 'WORKASPACE' ) );
#13 = ORIENTED_EDGE ( 'NONE', *, *, #101, .T. ) ;
#14 = EDGE_LOOP ( 'NONE', ( #13, #104 ) ) ;
#15 = ADVANCED_FACE ( 'NONE', ( #17 ), #85, .T. ) ;
#16 = DIRECTION ( 'NONE',  ( 1.000000000000000000, 0.000000000000000000, 0.000000000000000000 ) ) ;
#17 = FACE_OUTER_BOUND ( 'NONE', #14, .T. ) ;
#18 =( NAMED_UNIT ( * ) PLANE_ANGLE_UNIT ( ) SI_UNIT ( $, .RADIAN. ) );
#19 = UNCERTAINTY_MEASURE_WITH_UNIT (LENGTH_MEASURE( 1.000000000000000082E-05 ), #88, 'distance_accuracy_value', 'NONE');
#20 = PRESENTATION_STYLE_ASSIGNMENT (( #66 ) ) ;
#21 = STYLED_ITEM ( 'NONE', ( #20 ), #34 ) ;
#22 = DIRECTION ( 'NONE',  ( 1.000000000000000000, 0.000000000000000000, 0.000000000000000000 ) ) ;
#23 = PRESENTATION_STYLE_ASSIGNMENT (( #126 ) ) ;
#24 = VERTEX_POINT ( 'NONE', #137 ) ;
#25 = VECTOR ( 'NONE', #138, 1000.000000000000000 ) ;
#26 = EDGE_LOOP ( 'NONE', ( #82, #71, #59, #114 ) ) ;
#27 = APPLICATION_CONTEXT ( 'automotive_design' ) ;
#28 = PRESENTATION_LAYER_ASSIGNMENT (  '', '', ( #21 ) ) ;
#29 = CYLINDRICAL_SURFACE ( 'NONE', #32, 12.49999999999999645 ) ;
#30 = FACE_OUTER_BOUND ( 'NONE', #116, .T. ) ;
#31 = SURFACE_SIDE_STYLE ('',( #133 ) ) ;
#32 = AXIS2_PLACEMENT_3D ( 'NONE', #11, #55, #44 ) ;
#33 = PRODUCT_DEFINITION ( 'UNKNOWN', '', #108, #37 ) ;
#34 = ADVANCED_BREP_SHAPE_REPRESENTATION ( '21236', ( #84, #103 ), #74 ) ;
#35 = STYLED_ITEM ( 'NONE', ( #23 ), #84 ) ;
#36 = VERTEX_POINT ( 'NONE', #38 ) ;
#37 = PRODUCT_DEFINITION_CONTEXT ( 'detailed design', #27, 'design' ) ;
#38 = CARTESIAN_POINT ( 'NONE',  ( -12.49999999999999645, 0.000000000000000000, 0.000000000000000000 ) ) ;
#39 = DIRECTION ( 'NONE',  ( 1.000000000000000000, 0.000000000000000000, 0.000000000000000000 ) ) ;
#40 = CIRCLE ( 'NONE', #70, 12.49999999999999645 ) ;
#41 = APPLICATION_PROTOCOL_DEFINITION ( 'draft international standard', 'automotive_design', 1998, #140 ) ;
#42 = SHAPE_DEFINITION_REPRESENTATION ( #81, #34 ) ;
#43 = AXIS2_PLACEMENT_3D ( 'NONE', #51, #118, #39 ) ;
#44 = DIRECTION ( 'NONE',  ( -1.000000000000000000, 0.000000000000000000, 0.000000000000000000 ) ) ;
#45 = EDGE_CURVE ( 'NONE', #105, #36, #57, .T. ) ;
#46 = VERTEX_POINT ( 'NONE', #9 ) ;
#47 = UNCERTAINTY_MEASURE_WITH_UNIT (LENGTH_MEASURE( 1.000000000000000082E-05 ), #100, 'distance_accuracy_value', 'NONE');
#48 = ORIENTED_EDGE ( 'NONE', *, *, #45, .F. ) ;
#49 = DIRECTION ( 'NONE',  ( 1.000000000000000000, 0.000000000000000000, -0.000000000000000000 ) ) ;
#50 = DIRECTION ( 'NONE',  ( 0.000000000000000000, 0.000000000000000000, 1.000000000000000000 ) ) ;
#51 = CARTESIAN_POINT ( 'NONE',  ( 0.000000000000000000, 0.000000000000000000, 2.000000000000000000 ) ) ;
#52 =( NAMED_UNIT ( * ) PLANE_ANGLE_UNIT ( ) SI_UNIT ( $, .RADIAN. ) );
#53 = DIRECTION ( 'NONE',  ( 1.000000000000000000, 0.000000000000000000, 0.000000000000000000 ) ) ;
#54 = SURFACE_STYLE_FILL_AREA ( #98 ) ;
#55 = DIRECTION ( 'NONE',  ( -0.000000000000000000, -0.000000000000000000, -1.000000000000000000 ) ) ;
#56 = ORIENTED_EDGE ( 'NONE', *, *, #7, .T. ) ;
#57 = CIRCLE ( 'NONE', #80, 12.49999999999999645 ) ;
#58 = ADVANCED_FACE ( 'NONE', ( #132 ), #29, .T. ) ;
#59 = ORIENTED_EDGE ( 'NONE', *, *, #45, .T. ) ;
#60 = CARTESIAN_POINT ( 'NONE',  ( 0.000000000000000000, 0.000000000000000000, 2.000000000000000000 ) ) ;
#61 = CARTESIAN_POINT ( 'NONE',  ( 12.49999999999999645, 1.530808498934191127E-15, 0.000000000000000000 ) ) ;
#62 =( NAMED_UNIT ( * ) PLANE_ANGLE_UNIT ( ) SI_UNIT ( $, .RADIAN. ) );
#63 = COLOUR_RGB ( '',0.7921568627450980005, 0.8196078431372548767, 0.9333333333333333481 ) ;
#64 = CARTESIAN_POINT ( 'NONE',  ( 0.000000000000000000, 0.000000000000000000, 0.000000000000000000 ) ) ;
#65 = UNCERTAINTY_MEASURE_WITH_UNIT (LENGTH_MEASURE( 1.000000000000000082E-05 ), #121, 'distance_accuracy_value', 'NONE');
#66 = SURFACE_STYLE_USAGE ( .BOTH. , #79 ) ;
#67 = DIRECTION ( 'NONE',  ( -0.000000000000000000, -0.000000000000000000, -1.000000000000000000 ) ) ;
#68 = CLOSED_SHELL ( 'NONE', ( #58, #77, #15, #111 ) ) ;
#69 = PRODUCT_RELATED_PRODUCT_CATEGORY ( 'part', '', ( #87 ) ) ;
#70 = AXIS2_PLACEMENT_3D ( 'NONE', #64, #110, #53 ) ;
#71 = ORIENTED_EDGE ( 'NONE', *, *, #127, .T. ) ;
#72 = CARTESIAN_POINT ( 'NONE',  ( -12.49999999999999645, 0.000000000000000000, 2.000000000000000000 ) ) ;
#73 = LINE ( 'NONE', #6, #25 ) ;
#74 =( GEOMETRIC_REPRESENTATION_CONTEXT ( 3 ) GLOBAL_UNCERTAINTY_ASSIGNED_CONTEXT ( ( #19 ) ) GLOBAL_UNIT_ASSIGNED_CONTEXT ( ( #88, #52, #8 ) ) REPRESENTATION_CONTEXT ( 'NONE', 'WORKASPACE' ) );
#75 =( NAMED_UNIT ( * ) SI_UNIT ( $, .STERADIAN. ) SOLID_ANGLE_UNIT ( ) );
#76 = FILL_AREA_STYLE_COLOUR ( '', #1 ) ;
#77 = ADVANCED_FACE ( 'NONE', ( #30 ), #122, .T. ) ;
#78 = DIRECTION ( 'NONE',  ( 0.000000000000000000, 0.000000000000000000, 1.000000000000000000 ) ) ;
#79 = SURFACE_SIDE_STYLE ('',( #54 ) ) ;
#80 = AXIS2_PLACEMENT_3D ( 'NONE', #112, #97, #131 ) ;
#81 = PRODUCT_DEFINITION_SHAPE ( 'NONE', 'NONE',  #33 ) ;
#82 = ORIENTED_EDGE ( 'NONE', *, *, #135, .F. ) ;
#83 = EDGE_CURVE ( 'NONE', #36, #105, #40, .T. ) ;
#84 = MANIFOLD_SOLID_BREP ( 'Boss-Extrude1', #68 ) ;
#85 = PLANE ( 'NONE',  #124 ) ;
#86 = CARTESIAN_POINT ( 'NONE',  ( 0.000000000000000000, 0.000000000000000000, 2.000000000000000000 ) ) ;
#87 = PRODUCT ( '21236', '21236', '', ( #119 ) ) ;
#88 =( LENGTH_UNIT ( ) NAMED_UNIT ( * ) SI_UNIT ( .MILLI., .METRE. ) );
#89 = FILL_AREA_STYLE ('',( #99 ) ) ;
#90 = CIRCLE ( 'NONE', #43, 12.49999999999999645 ) ;
#91 = CIRCLE ( 'NONE', #113, 12.49999999999999645 ) ;
#92 = ORIENTED_EDGE ( 'NONE', *, *, #127, .F. ) ;
#93 = CARTESIAN_POINT ( 'NONE',  ( 0.000000000000000000, 0.000000000000000000, 0.000000000000000000 ) ) ;
#94 = DIRECTION ( 'NONE',  ( 1.000000000000000000, 0.000000000000000000, -0.000000000000000000 ) ) ;
#95 = CARTESIAN_POINT ( 'NONE',  ( 0.000000000000000000, 0.000000000000000000, 0.000000000000000000 ) ) ;
#96 = APPLICATION_PROTOCOL_DEFINITION ( 'draft international standard', 'automotive_design', 1998, #27 ) ;
#97 = DIRECTION ( 'NONE',  ( 0.000000000000000000, 0.000000000000000000, 1.000000000000000000 ) ) ;
#98 = FILL_AREA_STYLE ('',( #76 ) ) ;
#99 = FILL_AREA_STYLE_COLOUR ( '', #63 ) ;
#100 =( LENGTH_UNIT ( ) NAMED_UNIT ( * ) SI_UNIT ( .MILLI., .METRE. ) );
#101 = EDGE_CURVE ( 'NONE', #46, #24, #90, .T. ) ;
#102 = AXIS2_PLACEMENT_3D ( 'NONE', #123, #67, #10 ) ;
#103 = AXIS2_PLACEMENT_3D ( 'NONE', #95, #78, #22 ) ;
#104 = ORIENTED_EDGE ( 'NONE', *, *, #135, .T. ) ;
#105 = VERTEX_POINT ( 'NONE', #61 ) ;
#106 = ORIENTED_EDGE ( 'NONE', *, *, #83, .F. ) ;
#107 = FACE_OUTER_BOUND ( 'NONE', #128, .T. ) ;
#108 = PRODUCT_DEFINITION_FORMATION_WITH_SPECIFIED_SOURCE ( 'ANY', '', #87, .NOT_KNOWN. ) ;
#109 =( NAMED_UNIT ( * ) SI_UNIT ( $, .STERADIAN. ) SOLID_ANGLE_UNIT ( ) );
#110 = DIRECTION ( 'NONE',  ( 0.000000000000000000, 0.000000000000000000, 1.000000000000000000 ) ) ;
#111 = ADVANCED_FACE ( 'NONE', ( #107 ), #5, .F. ) ;
#112 = CARTESIAN_POINT ( 'NONE',  ( 0.000000000000000000, 0.000000000000000000, 0.000000000000000000 ) ) ;
#113 = AXIS2_PLACEMENT_3D ( 'NONE', #86, #129, #16 ) ;
#114 = ORIENTED_EDGE ( 'NONE', *, *, #7, .F. ) ;
#115 = DIRECTION ( 'NONE',  ( -0.000000000000000000, -0.000000000000000000, -1.000000000000000000 ) ) ;
#116 = EDGE_LOOP ( 'NONE', ( #92, #2, #56, #3 ) ) ;
#117 = MECHANICAL_DESIGN_GEOMETRIC_PRESENTATION_REPRESENTATION (  '', ( #35 ), #12 ) ;
#118 = DIRECTION ( 'NONE',  ( 0.000000000000000000, 0.000000000000000000, 1.000000000000000000 ) ) ;
#119 = PRODUCT_CONTEXT ( 'NONE', #140, 'mechanical' ) ;
#120 = VECTOR ( 'NONE', #115, 1000.000000000000000 ) ;
#121 =( LENGTH_UNIT ( ) NAMED_UNIT ( * ) SI_UNIT ( .MILLI., .METRE. ) );
#122 = CYLINDRICAL_SURFACE ( 'NONE', #102, 12.49999999999999645 ) ;
#123 = CARTESIAN_POINT ( 'NONE',  ( 0.000000000000000000, 0.000000000000000000, 2.000000000000000000 ) ) ;
#124 = AXIS2_PLACEMENT_3D ( 'NONE', #60, #4, #49 ) ;
#125 = AXIS2_PLACEMENT_3D ( 'NONE', #93, #50, #94 ) ;
#126 = SURFACE_STYLE_USAGE ( .BOTH. , #31 ) ;
#127 = EDGE_CURVE ( 'NONE', #24, #105, #73, .T. ) ;
#128 = EDGE_LOOP ( 'NONE', ( #106, #48 ) ) ;
#129 = DIRECTION ( 'NONE',  ( 0.000000000000000000, 0.000000000000000000, 1.000000000000000000 ) ) ;
#130 = PRESENTATION_LAYER_ASSIGNMENT (  '', '', ( #35 ) ) ;
#131 = DIRECTION ( 'NONE',  ( 1.000000000000000000, 0.000000000000000000, 0.000000000000000000 ) ) ;
#132 = FACE_OUTER_BOUND ( 'NONE', #26, .T. ) ;
#133 = SURFACE_STYLE_FILL_AREA ( #89 ) ;
#134 =( GEOMETRIC_REPRESENTATION_CONTEXT ( 3 ) GLOBAL_UNCERTAINTY_ASSIGNED_CONTEXT ( ( #65 ) ) GLOBAL_UNIT_ASSIGNED_CONTEXT ( ( #121, #62, #109 ) ) REPRESENTATION_CONTEXT ( 'NONE', 'WORKASPACE' ) );
#135 = EDGE_CURVE ( 'NONE', #24, #46, #91, .T. ) ;
#136 = LINE ( 'NONE', #72, #120 ) ;
#137 = CARTESIAN_POINT ( 'NONE',  ( 12.49999999999999645, 1.530808498934191127E-15, 2.000000000000000000 ) ) ;
#138 = DIRECTION ( 'NONE',  ( -0.000000000000000000, -0.000000000000000000, -1.000000000000000000 ) ) ;
#139 = MECHANICAL_DESIGN_GEOMETRIC_PRESENTATION_REPRESENTATION (  '', ( #21 ), #134 ) ;
#140 = APPLICATION_CONTEXT ( 'automotive_design' ) ;
ENDSEC;
END-ISO-10303-21;
