ISO-10303-21;
HEADER;
FILE_DESCRIPTION (( 'STEP AP203' ),
    '1' );
FILE_NAME ('Web Model 11877_11892.step',
    '2019-01-02T18:29:47',
    ( '' ),
    ( '' ),
    'SwSTEP 2.0',
    'SolidWorks 2016',
    '' );
FILE_SCHEMA (( 'CONFIG_CONTROL_DESIGN' ));
ENDSEC;

DATA;
#1 = DIRECTION ( 'NONE',  ( -0.7071067811865107100, 8.659560562355384000E-017, -0.7071067811865843200 ) ) ;
#2 = AXIS2_PLACEMENT_3D ( 'NONE', #202, #122, #143 ) ;
#3 = CARTESIAN_POINT ( 'NONE',  ( 1.000000000000000000, 1.524685264938455200E-015, -12.45000000000000300 ) ) ;
#4 = CONICAL_SURFACE ( 'NONE', #187, 12.45000000000000300, 0.7853981633975003500 ) ;
#5 = PLANE ( 'NONE',  #236 ) ;
#6 = CARTESIAN_POINT ( 'NONE',  ( 0.9500000000000072800, 1.530808498934191500E-015, -12.50000000000000000 ) ) ;
#7 = PRODUCT_RELATED_PRODUCT_CATEGORY ( 'detail', '', ( #183 ) ) ;
#8 = PERSON_AND_ORGANIZATION ( #230, #98 ) ;
#9 = CARTESIAN_POINT ( 'NONE',  ( -0.9499999999999968500, 1.530808498934191500E-015, -12.50000000000000000 ) ) ;
#10 = DIRECTION ( 'NONE',  ( -1.000000000000000000, -0.0000000000000000000, -0.0000000000000000000 ) ) ;
#11 = CC_DESIGN_DATE_AND_TIME_ASSIGNMENT ( #85, #23, ( #172 ) ) ;
#12 = CC_DESIGN_APPROVAL ( #109, ( #47 ) ) ;
#13 = CC_DESIGN_PERSON_AND_ORGANIZATION_ASSIGNMENT ( #197, #48, ( #183 ) ) ;
#14 = CONICAL_SURFACE ( 'NONE', #72, 12.50000000000000000, 0.7853981633974309600 ) ;
#15 = VERTEX_POINT ( 'NONE', #119 ) ;
#16 = COORDINATED_UNIVERSAL_TIME_OFFSET ( 5, 0, .BEHIND. ) ;
#17 = CYLINDRICAL_SURFACE ( 'NONE', #248, 12.50000000000000000 ) ;
#18 = SECURITY_CLASSIFICATION_LEVEL ( 'unclassified' ) ;
#19 = APPROVAL_STATUS ( 'not_yet_approved' ) ;
#20 = PRODUCT_DEFINITION_FORMATION_WITH_SPECIFIED_SOURCE ( 'ANY', '', #183, .NOT_KNOWN. ) ;
#21 = DIRECTION ( 'NONE',  ( -1.000000000000000000, 0.0000000000000000000, 0.0000000000000000000 ) ) ;
#22 = ORIENTED_EDGE ( 'NONE', *, *, #252, .F. ) ;
#23 = DATE_TIME_ROLE ( 'creation_date' ) ;
#24 = DIRECTION ( 'NONE',  ( 1.000000000000000000, -0.0000000000000000000, -0.0000000000000000000 ) ) ;
#25 = DIRECTION ( 'NONE',  ( -1.000000000000000000, -0.0000000000000000000, -0.0000000000000000000 ) ) ;
#26 = EDGE_CURVE ( 'NONE', #247, #54, #79, .T. ) ;
#27 = CARTESIAN_POINT ( 'NONE',  ( 0.9500000000000072800, 0.0000000000000000000, 12.50000000000000000 ) ) ;
#28 = COORDINATED_UNIVERSAL_TIME_OFFSET ( 5, 0, .BEHIND. ) ;
#29 = CIRCLE ( 'NONE', #146, 12.44999999999999900 ) ;
#30 = DIRECTION ( 'NONE',  ( 1.000000000000000000, 0.0000000000000000000, 0.0000000000000000000 ) ) ;
#31 = DIRECTION ( 'NONE',  ( 0.0000000000000000000, 0.0000000000000000000, -1.000000000000000000 ) ) ;
#32 = CIRCLE ( 'NONE', #76, 12.44999999999999900 ) ;
#33 = ORIENTED_EDGE ( 'NONE', *, *, #223, .T. ) ;
#34 = CC_DESIGN_PERSON_AND_ORGANIZATION_ASSIGNMENT ( #62, #253, ( #20 ) ) ;
#35 = DATE_AND_TIME ( #102, #94 ) ;
#36 = FACE_OUTER_BOUND ( 'NONE', #245, .T. ) ;
#37 = CC_DESIGN_APPROVAL ( #258, ( #20 ) ) ;
#38 = VECTOR ( 'NONE', #25, 1000.000000000000000 ) ;
#39 = EDGE_LOOP ( 'NONE', ( #167, #91 ) ) ;
#40 = CC_DESIGN_SECURITY_CLASSIFICATION ( #47, ( #20 ) ) ;
#41 = CALENDAR_DATE ( 2019, 2, 1 ) ;
#42 = DESIGN_CONTEXT ( 'detailed design', #138, 'design' ) ;
#43 = VERTEX_POINT ( 'NONE', #65 ) ;
#44 = APPROVAL_ROLE ( '' ) ;
#45 = DATE_AND_TIME ( #50, #106 ) ;
#46 = VECTOR ( 'NONE', #73, 1000.000000000000000 ) ;
#47 = SECURITY_CLASSIFICATION ( '', '', #18 ) ;
#48 = PERSON_AND_ORGANIZATION_ROLE ( 'design_owner' ) ;
#49 = CARTESIAN_POINT ( 'NONE',  ( 1.000000000000000000, 0.0000000000000000000, 0.0000000000000000000 ) ) ;
#50 = CALENDAR_DATE ( 2019, 2, 1 ) ;
#51 = ORIENTED_EDGE ( 'NONE', *, *, #223, .F. ) ;
#52 = CARTESIAN_POINT ( 'NONE',  ( 1.000000000000000000, 0.0000000000000000000, 0.0000000000000000000 ) ) ;
#53 = CARTESIAN_POINT ( 'NONE',  ( -1.000000000000000000, 0.0000000000000000000, 0.0000000000000000000 ) ) ;
#54 = VERTEX_POINT ( 'NONE', #27 ) ;
#55 = CC_DESIGN_PERSON_AND_ORGANIZATION_ASSIGNMENT ( #127, #273, ( #20 ) ) ;
#56 = COORDINATED_UNIVERSAL_TIME_OFFSET ( 5, 0, .BEHIND. ) ;
#57 = CIRCLE ( 'NONE', #244, 12.50000000000000000 ) ;
#58 = ORIENTED_EDGE ( 'NONE', *, *, #158, .F. ) ;
#59 = EDGE_CURVE ( 'NONE', #43, #157, #222, .T. ) ;
#60 = EDGE_LOOP ( 'NONE', ( #266, #58, #199, #139 ) ) ;
#61 = ADVANCED_FACE ( 'NONE', ( #82 ), #14, .T. ) ;
#62 = PERSON_AND_ORGANIZATION ( #230, #98 ) ;
#63 = VERTEX_POINT ( 'NONE', #71 ) ;
#64 = PERSON_AND_ORGANIZATION_ROLE ( 'creator' ) ;
#65 = CARTESIAN_POINT ( 'NONE',  ( 1.000000000000000000, 1.527746881936323400E-015, -12.45000000000000300 ) ) ;
#66 = ADVANCED_FACE ( 'NONE', ( #194 ), #5, .F. ) ;
#67 =( GEOMETRIC_REPRESENTATION_CONTEXT ( 3 ) GLOBAL_UNCERTAINTY_ASSIGNED_CONTEXT ( ( #274 ) ) GLOBAL_UNIT_ASSIGNED_CONTEXT ( ( #70, #159, #192 ) ) REPRESENTATION_CONTEXT ( 'NONE', 'WORKASPACE' ) );
#68 = APPLICATION_PROTOCOL_DEFINITION ( 'international standard', 'config_control_design', 1994, #138 ) ;
#69 = EDGE_LOOP ( 'NONE', ( #224, #150, #204, #203 ) ) ;
#70 =( LENGTH_UNIT ( ) NAMED_UNIT ( * ) SI_UNIT ( .MILLI., .METRE. ) );
#71 = CARTESIAN_POINT ( 'NONE',  ( -1.000000000000000000, 0.0000000000000000000, -12.44999999999999900 ) ) ;
#72 = AXIS2_PLACEMENT_3D ( 'NONE', #235, #238, #215 ) ;
#73 = DIRECTION ( 'NONE',  ( -1.000000000000000000, -0.0000000000000000000, -0.0000000000000000000 ) ) ;
#74 = COORDINATED_UNIVERSAL_TIME_OFFSET ( 5, 0, .BEHIND. ) ;
#75 = CARTESIAN_POINT ( 'NONE',  ( 1.000000000000000000, 0.0000000000000000000, 0.0000000000000000000 ) ) ;
#76 = AXIS2_PLACEMENT_3D ( 'NONE', #53, #241, #78 ) ;
#77 = CARTESIAN_POINT ( 'NONE',  ( 0.9500000000000072800, 0.0000000000000000000, 0.0000000000000000000 ) ) ;
#78 = DIRECTION ( 'NONE',  ( 0.0000000000000000000, 0.0000000000000000000, -1.000000000000000000 ) ) ;
#79 = LINE ( 'NONE', #260, #111 ) ;
#80 = AXIS2_PLACEMENT_3D ( 'NONE', #140, #24, #117 ) ;
#81 = LINE ( 'NONE', #219, #38 ) ;
#82 = FACE_OUTER_BOUND ( 'NONE', #100, .T. ) ;
#83 = PRODUCT_DEFINITION_SHAPE ( 'NONE', 'NONE',  #172 ) ;
#84 = AXIS2_PLACEMENT_3D ( 'NONE', #92, #21, #196 ) ;
#85 = DATE_AND_TIME ( #262, #132 ) ;
#86 = LINE ( 'NONE', #135, #137 ) ;
#87 = CC_DESIGN_APPROVAL ( #134, ( #172 ) ) ;
#88 = DIRECTION ( 'NONE',  ( 1.000000000000000000, 0.0000000000000000000, 0.0000000000000000000 ) ) ;
#89 = DATE_AND_TIME ( #179, #267 ) ;
#90 = LINE ( 'NONE', #156, #228 ) ;
#91 = ORIENTED_EDGE ( 'NONE', *, *, #212, .T. ) ;
#92 = CARTESIAN_POINT ( 'NONE',  ( 0.9500000000000072800, 0.0000000000000000000, 0.0000000000000000000 ) ) ;
#93 = CC_DESIGN_DATE_AND_TIME_ASSIGNMENT ( #208, #170, ( #47 ) ) ;
#94 = LOCAL_TIME ( 13, 29, 47.00000000000000000, #28 ) ;
#95 = CARTESIAN_POINT ( 'NONE',  ( 1.000000000000000000, 0.0000000000000000000, 12.45000000000000300 ) ) ;
#96 = CARTESIAN_POINT ( 'NONE',  ( 1.000000000000000000, 0.0000000000000000000, 12.50000000000000000 ) ) ;
#97 = DIRECTION ( 'NONE',  ( -1.000000000000000000, 0.0000000000000000000, 0.0000000000000000000 ) ) ;
#98 = ORGANIZATION ( 'UNSPECIFIED', 'UNSPECIFIED', '' ) ;
#99 = EDGE_CURVE ( 'NONE', #15, #162, #86, .T. ) ;
#100 = EDGE_LOOP ( 'NONE', ( #207, #264, #120, #129 ) ) ;
#101 = ADVANCED_BREP_SHAPE_REPRESENTATION ( 'Web Model 11877_11892', ( #105, #124 ), #67 ) ;
#102 = CALENDAR_DATE ( 2019, 2, 1 ) ;
#103 = AXIS2_PLACEMENT_3D ( 'NONE', #164, #30, #242 ) ;
#104 = AXIS2_PLACEMENT_3D ( 'NONE', #193, #175, #115 ) ;
#105 = MANIFOLD_SOLID_BREP ( 'Chamfer1', #209 ) ;
#106 = LOCAL_TIME ( 13, 29, 47.00000000000000000, #16 ) ;
#107 = CIRCLE ( 'NONE', #103, 12.45000000000000300 ) ;
#108 = ORIENTED_EDGE ( 'NONE', *, *, #210, .F. ) ;
#109 = APPROVAL ( #256, 'UNSPECIFIED' ) ;
#110 = EDGE_LOOP ( 'NONE', ( #186, #269, #22, #254 ) ) ;
#111 = VECTOR ( 'NONE', #177, 1000.000000000000000 ) ;
#112 = DIRECTION ( 'NONE',  ( 0.7071067811865597900, 0.0000000000000000000, -0.7071067811865352500 ) ) ;
#113 = AXIS2_PLACEMENT_3D ( 'NONE', #49, #216, #136 ) ;
#114 = APPLICATION_CONTEXT ( 'configuration controlled 3d designs of mechanical parts and assemblies' ) ;
#115 = DIRECTION ( 'NONE',  ( 0.0000000000000000000, 0.0000000000000000000, -1.000000000000000000 ) ) ;
#116 = APPLICATION_PROTOCOL_DEFINITION ( 'international standard', 'config_control_design', 1994, #114 ) ;
#117 = DIRECTION ( 'NONE',  ( 0.0000000000000000000, 0.0000000000000000000, -1.000000000000000000 ) ) ;
#118 = APPROVAL_PERSON_ORGANIZATION ( #213, #134, #251 ) ;
#119 = CARTESIAN_POINT ( 'NONE',  ( -1.000000000000000000, 1.527746881936323000E-015, 12.44999999999999900 ) ) ;
#120 = ORIENTED_EDGE ( 'NONE', *, *, #151, .T. ) ;
#121 = CARTESIAN_POINT ( 'NONE',  ( -1.000000000000000000, 0.0000000000000000000, 0.0000000000000000000 ) ) ;
#122 = DIRECTION ( 'NONE',  ( 1.000000000000000000, -0.0000000000000000000, -0.0000000000000000000 ) ) ;
#123 = CARTESIAN_POINT ( 'NONE',  ( 1.000000000000000000, 0.0000000000000000000, 0.0000000000000000000 ) ) ;
#124 = AXIS2_PLACEMENT_3D ( 'NONE', #131, #237, #217 ) ;
#125 = ORIENTED_EDGE ( 'NONE', *, *, #99, .T. ) ;
#126 = DIRECTION ( 'NONE',  ( 0.0000000000000000000, 0.0000000000000000000, 1.000000000000000000 ) ) ;
#127 = PERSON_AND_ORGANIZATION ( #230, #98 ) ;
#128 = AXIS2_PLACEMENT_3D ( 'NONE', #255, #160, #257 ) ;
#129 = ORIENTED_EDGE ( 'NONE', *, *, #144, .F. ) ;
#130 = EDGE_CURVE ( 'NONE', #157, #54, #250, .T. ) ;
#131 = CARTESIAN_POINT ( 'NONE',  ( 0.0000000000000000000, 0.0000000000000000000, 0.0000000000000000000 ) ) ;
#132 = LOCAL_TIME ( 13, 29, 47.00000000000000000, #74 ) ;
#133 = VECTOR ( 'NONE', #1, 1000.000000000000000 ) ;
#134 = APPROVAL ( #19, 'UNSPECIFIED' ) ;
#135 = CARTESIAN_POINT ( 'NONE',  ( -0.9499999999999968500, 1.530808498934191500E-015, 12.50000000000000000 ) ) ;
#136 = DIRECTION ( 'NONE',  ( 0.0000000000000000000, 0.0000000000000000000, 1.000000000000000000 ) ) ;
#137 = VECTOR ( 'NONE', #141, 1000.000000000000000 ) ;
#138 = APPLICATION_CONTEXT ( 'configuration controlled 3d designs of mechanical parts and assemblies' ) ;
#139 = ORIENTED_EDGE ( 'NONE', *, *, #130, .F. ) ;
#140 = CARTESIAN_POINT ( 'NONE',  ( -0.9499999999999968500, 0.0000000000000000000, 0.0000000000000000000 ) ) ;
#141 = DIRECTION ( 'NONE',  ( 0.7071067811865597900, 8.659560562354782500E-017, 0.7071067811865352500 ) ) ;
#142 = CIRCLE ( 'NONE', #80, 12.50000000000000000 ) ;
#143 = DIRECTION ( 'NONE',  ( 0.0000000000000000000, 0.0000000000000000000, -1.000000000000000000 ) ) ;
#144 = EDGE_CURVE ( 'NONE', #162, #243, #142, .T. ) ;
#145 = CIRCLE ( 'NONE', #2, 12.50000000000000000 ) ;
#146 = AXIS2_PLACEMENT_3D ( 'NONE', #198, #10, #165 ) ;
#147 = CONICAL_SURFACE ( 'NONE', #128, 12.45000000000000300, 0.7853981633975003500 ) ;
#148 = PERSON_AND_ORGANIZATION ( #230, #98 ) ;
#149 = FACE_OUTER_BOUND ( 'NONE', #60, .T. ) ;
#150 = ORIENTED_EDGE ( 'NONE', *, *, #130, .T. ) ;
#151 = EDGE_CURVE ( 'NONE', #63, #243, #90, .T. ) ;
#152 = SHAPE_DEFINITION_REPRESENTATION ( #83, #101 ) ;
#153 = EDGE_LOOP ( 'NONE', ( #108, #125, #51, #169 ) ) ;
#154 = APPROVAL_ROLE ( '' ) ;
#155 = ADVANCED_FACE ( 'NONE', ( #149 ), #147, .T. ) ;
#156 = CARTESIAN_POINT ( 'NONE',  ( -0.9499999999999968500, 0.0000000000000000000, -12.50000000000000000 ) ) ;
#157 = VERTEX_POINT ( 'NONE', #6 ) ;
#158 = EDGE_CURVE ( 'NONE', #247, #43, #173, .T. ) ;
#159 =( NAMED_UNIT ( * ) PLANE_ANGLE_UNIT ( ) SI_UNIT ( $, .RADIAN. ) );
#160 = DIRECTION ( 'NONE',  ( -1.000000000000000000, 0.0000000000000000000, 0.0000000000000000000 ) ) ;
#161 = APPROVAL_PERSON_ORGANIZATION ( #148, #109, #44 ) ;
#162 = VERTEX_POINT ( 'NONE', #176 ) ;
#163 = DIRECTION ( 'NONE',  ( 1.000000000000000000, 0.0000000000000000000, 0.0000000000000000000 ) ) ;
#164 = CARTESIAN_POINT ( 'NONE',  ( 1.000000000000000000, 0.0000000000000000000, 0.0000000000000000000 ) ) ;
#165 = DIRECTION ( 'NONE',  ( 0.0000000000000000000, 0.0000000000000000000, -1.000000000000000000 ) ) ;
#166 = ORIENTED_EDGE ( 'NONE', *, *, #210, .T. ) ;
#167 = ORIENTED_EDGE ( 'NONE', *, *, #158, .T. ) ;
#168 = ADVANCED_FACE ( 'NONE', ( #36 ), #263, .T. ) ;
#169 = ORIENTED_EDGE ( 'NONE', *, *, #151, .F. ) ;
#170 = DATE_TIME_ROLE ( 'classification_date' ) ;
#171 = LOCAL_TIME ( 13, 29, 47.00000000000000000, #225 ) ;
#172 = PRODUCT_DEFINITION ( 'UNKNOWN', '', #20, #42 ) ;
#173 = CIRCLE ( 'NONE', #104, 12.45000000000000300 ) ;
#174 = DIRECTION ( 'NONE',  ( 0.0000000000000000000, 0.0000000000000000000, -1.000000000000000000 ) ) ;
#175 = DIRECTION ( 'NONE',  ( 1.000000000000000000, 0.0000000000000000000, 0.0000000000000000000 ) ) ;
#176 = CARTESIAN_POINT ( 'NONE',  ( -0.9499999999999968500, 0.0000000000000000000, 12.50000000000000000 ) ) ;
#177 = DIRECTION ( 'NONE',  ( -0.7071067811865107100, 0.0000000000000000000, 0.7071067811865843200 ) ) ;
#178 = CARTESIAN_POINT ( 'NONE',  ( -0.9499999999999968500, 0.0000000000000000000, 0.0000000000000000000 ) ) ;
#179 = CALENDAR_DATE ( 2019, 2, 1 ) ;
#180 = DIRECTION ( 'NONE',  ( -1.000000000000000000, 0.0000000000000000000, 0.0000000000000000000 ) ) ;
#181 = DIRECTION ( 'NONE',  ( 1.000000000000000000, -0.0000000000000000000, -0.0000000000000000000 ) ) ;
#182 = APPROVAL_DATE_TIME ( #45, #134 ) ;
#183 = PRODUCT ( 'Web Model 11877_11892', 'Web Model 11877_11892', '', ( #239 ) ) ;
#184 = EDGE_CURVE ( 'NONE', #157, #243, #81, .T. ) ;
#185 = FACE_OUTER_BOUND ( 'NONE', #153, .T. ) ;
#186 = ORIENTED_EDGE ( 'NONE', *, *, #212, .F. ) ;
#187 = AXIS2_PLACEMENT_3D ( 'NONE', #123, #180, #201 ) ;
#188 = APPROVAL_PERSON_ORGANIZATION ( #221, #258, #154 ) ;
#189 = LINE ( 'NONE', #96, #46 ) ;
#190 = ADVANCED_FACE ( 'NONE', ( #214 ), #240, .T. ) ;
#191 = DIRECTION ( 'NONE',  ( 0.0000000000000000000, 0.0000000000000000000, -1.000000000000000000 ) ) ;
#192 =( NAMED_UNIT ( * ) SI_UNIT ( $, .STERADIAN. ) SOLID_ANGLE_UNIT ( ) );
#193 = CARTESIAN_POINT ( 'NONE',  ( 1.000000000000000000, 0.0000000000000000000, 0.0000000000000000000 ) ) ;
#194 = FACE_OUTER_BOUND ( 'NONE', #229, .T. ) ;
#195 = ORIENTED_EDGE ( 'NONE', *, *, #205, .T. ) ;
#196 = DIRECTION ( 'NONE',  ( 0.0000000000000000000, 0.0000000000000000000, -1.000000000000000000 ) ) ;
#197 = PERSON_AND_ORGANIZATION ( #230, #98 ) ;
#198 = CARTESIAN_POINT ( 'NONE',  ( -1.000000000000000000, 0.0000000000000000000, 0.0000000000000000000 ) ) ;
#199 = ORIENTED_EDGE ( 'NONE', *, *, #26, .T. ) ;
#200 = DIRECTION ( 'NONE',  ( 0.0000000000000000000, 0.0000000000000000000, -1.000000000000000000 ) ) ;
#201 = DIRECTION ( 'NONE',  ( 0.0000000000000000000, 0.0000000000000000000, 1.000000000000000000 ) ) ;
#202 = CARTESIAN_POINT ( 'NONE',  ( -0.9499999999999968500, 0.0000000000000000000, 0.0000000000000000000 ) ) ;
#203 = ORIENTED_EDGE ( 'NONE', *, *, #144, .T. ) ;
#204 = ORIENTED_EDGE ( 'NONE', *, *, #227, .T. ) ;
#205 = EDGE_CURVE ( 'NONE', #63, #15, #29, .T. ) ;
#206 = PERSON_AND_ORGANIZATION ( #230, #98 ) ;
#207 = ORIENTED_EDGE ( 'NONE', *, *, #99, .F. ) ;
#208 = DATE_AND_TIME ( #41, #171 ) ;
#209 = CLOSED_SHELL ( 'NONE', ( #234, #271, #168, #232, #190, #66, #155, #61 ) ) ;
#210 = EDGE_CURVE ( 'NONE', #15, #63, #32, .T. ) ;
#211 = ORIENTED_EDGE ( 'NONE', *, *, #252, .T. ) ;
#212 = EDGE_CURVE ( 'NONE', #43, #247, #107, .T. ) ;
#213 = PERSON_AND_ORGANIZATION ( #230, #98 ) ;
#214 = FACE_OUTER_BOUND ( 'NONE', #39, .T. ) ;
#215 = DIRECTION ( 'NONE',  ( 0.0000000000000000000, 0.0000000000000000000, -1.000000000000000000 ) ) ;
#216 = DIRECTION ( 'NONE',  ( -1.000000000000000000, -0.0000000000000000000, -0.0000000000000000000 ) ) ;
#217 = DIRECTION ( 'NONE',  ( 1.000000000000000000, 0.0000000000000000000, 0.0000000000000000000 ) ) ;
#218 = CC_DESIGN_PERSON_AND_ORGANIZATION_ASSIGNMENT ( #206, #64, ( #172 ) ) ;
#219 = CARTESIAN_POINT ( 'NONE',  ( 1.000000000000000000, 1.530808498934191500E-015, -12.50000000000000000 ) ) ;
#220 = DIRECTION ( 'NONE',  ( -1.000000000000000000, -0.0000000000000000000, -0.0000000000000000000 ) ) ;
#221 = PERSON_AND_ORGANIZATION ( #230, #98 ) ;
#222 = LINE ( 'NONE', #3, #133 ) ;
#223 = EDGE_CURVE ( 'NONE', #243, #162, #145, .T. ) ;
#224 = ORIENTED_EDGE ( 'NONE', *, *, #184, .F. ) ;
#225 = COORDINATED_UNIVERSAL_TIME_OFFSET ( 5, 0, .BEHIND. ) ;
#226 = ORIENTED_EDGE ( 'NONE', *, *, #184, .T. ) ;
#227 = EDGE_CURVE ( 'NONE', #54, #162, #189, .T. ) ;
#228 = VECTOR ( 'NONE', #112, 1000.000000000000000 ) ;
#229 = EDGE_LOOP ( 'NONE', ( #195, #166 ) ) ;
#230 = PERSON ( 'UNSPECIFIED', 'UNSPECIFIED', 'UNSPECIFIED', ('UNSPECIFIED'), ('UNSPECIFIED'), ('UNSPECIFIED') ) ;
#231 = AXIS2_PLACEMENT_3D ( 'NONE', #52, #163, #31 ) ;
#232 = ADVANCED_FACE ( 'NONE', ( #246 ), #17, .T. ) ;
#233 = CONICAL_SURFACE ( 'NONE', #268, 12.50000000000000000, 0.7853981633974309600 ) ;
#234 = ADVANCED_FACE ( 'NONE', ( #185 ), #233, .T. ) ;
#235 = CARTESIAN_POINT ( 'NONE',  ( -0.9499999999999968500, 0.0000000000000000000, 0.0000000000000000000 ) ) ;
#236 = AXIS2_PLACEMENT_3D ( 'NONE', #121, #88, #174 ) ;
#237 = DIRECTION ( 'NONE',  ( 0.0000000000000000000, 0.0000000000000000000, 1.000000000000000000 ) ) ;
#238 = DIRECTION ( 'NONE',  ( 1.000000000000000000, -0.0000000000000000000, -0.0000000000000000000 ) ) ;
#239 = MECHANICAL_CONTEXT ( 'NONE', #114, 'mechanical' ) ;
#240 = PLANE ( 'NONE',  #231 ) ;
#241 = DIRECTION ( 'NONE',  ( -1.000000000000000000, -0.0000000000000000000, -0.0000000000000000000 ) ) ;
#242 = DIRECTION ( 'NONE',  ( 0.0000000000000000000, 0.0000000000000000000, -1.000000000000000000 ) ) ;
#243 = VERTEX_POINT ( 'NONE', #9 ) ;
#244 = AXIS2_PLACEMENT_3D ( 'NONE', #77, #97, #191 ) ;
#245 = EDGE_LOOP ( 'NONE', ( #211, #226, #33, #261 ) ) ;
#246 = FACE_OUTER_BOUND ( 'NONE', #69, .T. ) ;
#247 = VERTEX_POINT ( 'NONE', #95 ) ;
#248 = AXIS2_PLACEMENT_3D ( 'NONE', #75, #220, #126 ) ;
#249 = APPROVAL_DATE_TIME ( #35, #109 ) ;
#250 = CIRCLE ( 'NONE', #84, 12.50000000000000000 ) ;
#251 = APPROVAL_ROLE ( '' ) ;
#252 = EDGE_CURVE ( 'NONE', #54, #157, #57, .T. ) ;
#253 = PERSON_AND_ORGANIZATION_ROLE ( 'design_supplier' ) ;
#254 = ORIENTED_EDGE ( 'NONE', *, *, #26, .F. ) ;
#255 = CARTESIAN_POINT ( 'NONE',  ( 1.000000000000000000, 0.0000000000000000000, 0.0000000000000000000 ) ) ;
#256 = APPROVAL_STATUS ( 'not_yet_approved' ) ;
#257 = DIRECTION ( 'NONE',  ( 0.0000000000000000000, 0.0000000000000000000, 1.000000000000000000 ) ) ;
#258 = APPROVAL ( #272, 'UNSPECIFIED' ) ;
#259 = FACE_OUTER_BOUND ( 'NONE', #110, .T. ) ;
#260 = CARTESIAN_POINT ( 'NONE',  ( 1.000000000000000000, 0.0000000000000000000, 12.45000000000000300 ) ) ;
#261 = ORIENTED_EDGE ( 'NONE', *, *, #227, .F. ) ;
#262 = CALENDAR_DATE ( 2019, 2, 1 ) ;
#263 = CYLINDRICAL_SURFACE ( 'NONE', #113, 12.50000000000000000 ) ;
#264 = ORIENTED_EDGE ( 'NONE', *, *, #205, .F. ) ;
#265 = APPROVAL_DATE_TIME ( #89, #258 ) ;
#266 = ORIENTED_EDGE ( 'NONE', *, *, #59, .F. ) ;
#267 = LOCAL_TIME ( 13, 29, 47.00000000000000000, #56 ) ;
#268 = AXIS2_PLACEMENT_3D ( 'NONE', #178, #181, #200 ) ;
#269 = ORIENTED_EDGE ( 'NONE', *, *, #59, .T. ) ;
#270 = CC_DESIGN_PERSON_AND_ORGANIZATION_ASSIGNMENT ( #8, #275, ( #47 ) ) ;
#271 = ADVANCED_FACE ( 'NONE', ( #259 ), #4, .T. ) ;
#272 = APPROVAL_STATUS ( 'not_yet_approved' ) ;
#273 = PERSON_AND_ORGANIZATION_ROLE ( 'creator' ) ;
#274 = UNCERTAINTY_MEASURE_WITH_UNIT (LENGTH_MEASURE( 1.000000000000000100E-005 ), #70, 'distance_accuracy_value', 'NONE');
#275 = PERSON_AND_ORGANIZATION_ROLE ( 'classification_officer' ) ;
ENDSEC;
END-ISO-10303-21;
