ISO-10303-21;
HEADER;
FILE_DESCRIPTION (( 'STEP AP203' ),
    '1' );
FILE_NAME ('Web Model 45580.STEP',
    '2017-01-31T15:18:06',
    ( '' ),
    ( '' ),
    'SwSTEP 2.0',
    'SolidWorks 2016',
    '' );
FILE_SCHEMA (( 'CONFIG_CONTROL_DESIGN' ));
ENDSEC;

DATA;
#1 = PERSON_AND_ORGANIZATION ( #147, #4 ) ;
#2 = VERTEX_POINT ( 'NONE', #157 ) ;
#3 = PERSON_AND_ORGANIZATION ( #147, #4 ) ;
#4 = ORGANIZATION ( 'UNSPECIFIED', 'UNSPECIFIED', '' ) ;
#5 = CARTESIAN_POINT ( 'NONE',  ( 0.0000000000000000000, 0.0000000000000000000, -4.000000000000000000 ) ) ;
#6 = CARTESIAN_POINT ( 'NONE',  ( 15.00000000000000000, 0.0000000000000000000, -4.000000000000000000 ) ) ;
#7 = CALENDAR_DATE ( 2017, 31, 1 ) ;
#8 = LINE ( 'NONE', #123, #171 ) ;
#9 = DIRECTION ( 'NONE',  ( 1.000000000000000000, 0.0000000000000000000, 0.0000000000000000000 ) ) ;
#10 = ADVANCED_FACE ( 'NONE', ( #57 ), #19, .T. ) ;
#11 =( LENGTH_UNIT ( ) NAMED_UNIT ( * ) SI_UNIT ( .MILLI., .METRE. ) );
#12 = APPROVAL_ROLE ( '' ) ;
#13 = LOCAL_TIME ( 10, 18, 6.000000000000000000, #92 ) ;
#14 = VECTOR ( 'NONE', #53, 1000.000000000000000 ) ;
#15 = CYLINDRICAL_SURFACE ( 'NONE', #88, 15.00000000000000000 ) ;
#16 = VERTEX_POINT ( 'NONE', #153 ) ;
#17 = PRODUCT_DEFINITION_SHAPE ( 'NONE', 'NONE',  #105 ) ;
#18 = VERTEX_POINT ( 'NONE', #66 ) ;
#19 = PLANE ( 'NONE',  #22 ) ;
#20 = CARTESIAN_POINT ( 'NONE',  ( 0.0000000000000000000, 0.0000000000000000000, -4.000000000000000000 ) ) ;
#21 = APPROVAL_DATE_TIME ( #47, #154 ) ;
#22 = AXIS2_PLACEMENT_3D ( 'NONE', #155, #27, #78 ) ;
#23 = APPROVAL_STATUS ( 'not_yet_approved' ) ;
#24 = CALENDAR_DATE ( 2017, 31, 1 ) ;
#25 = EDGE_LOOP ( 'NONE', ( #163, #77, #85, #83 ) ) ;
#26 = DESIGN_CONTEXT ( 'detailed design', #33, 'design' ) ;
#27 = DIRECTION ( 'NONE',  ( 0.0000000000000000000, 0.0000000000000000000, 1.000000000000000000 ) ) ;
#28 = DATE_AND_TIME ( #67, #59 ) ;
#29 = ORIENTED_EDGE ( 'NONE', *, *, #159, .T. ) ;
#30 = ADVANCED_FACE ( 'NONE', ( #73 ), #15, .T. ) ;
#31 = PERSON_AND_ORGANIZATION_ROLE ( 'classification_officer' ) ;
#32 = PERSON_AND_ORGANIZATION ( #147, #4 ) ;
#33 = APPLICATION_CONTEXT ( 'configuration controlled 3d designs of mechanical parts and assemblies' ) ;
#34 = COORDINATED_UNIVERSAL_TIME_OFFSET ( 5, 0, .BEHIND. ) ;
#35 = APPROVAL_PERSON_ORGANIZATION ( #3, #79, #12 ) ;
#36 = CC_DESIGN_PERSON_AND_ORGANIZATION_ASSIGNMENT ( #1, #31, ( #87 ) ) ;
#37 = CARTESIAN_POINT ( 'NONE',  ( 0.0000000000000000000, 0.0000000000000000000, -4.000000000000000000 ) ) ;
#38 = DIRECTION ( 'NONE',  ( 0.0000000000000000000, 0.0000000000000000000, 1.000000000000000000 ) ) ;
#39 = ORIENTED_EDGE ( 'NONE', *, *, #86, .T. ) ;
#40 = CARTESIAN_POINT ( 'NONE',  ( -15.00000000000000000, 1.836970198721029600E-015, -4.000000000000000000 ) ) ;
#41 = PLANE ( 'NONE',  #136 ) ;
#42 = DIRECTION ( 'NONE',  ( 1.000000000000000000, 0.0000000000000000000, -0.0000000000000000000 ) ) ;
#43 = MECHANICAL_CONTEXT ( 'NONE', #138, 'mechanical' ) ;
#44 = CC_DESIGN_PERSON_AND_ORGANIZATION_ASSIGNMENT ( #168, #126, ( #72 ) ) ;
#45 = APPROVAL_STATUS ( 'not_yet_approved' ) ;
#46 = CALENDAR_DATE ( 2017, 31, 1 ) ;
#47 = DATE_AND_TIME ( #24, #13 ) ;
#48 = APPROVAL_PERSON_ORGANIZATION ( #128, #154, #175 ) ;
#49 = DIRECTION ( 'NONE',  ( 1.000000000000000000, 0.0000000000000000000, 0.0000000000000000000 ) ) ;
#50 =( NAMED_UNIT ( * ) PLANE_ANGLE_UNIT ( ) SI_UNIT ( $, .RADIAN. ) );
#51 = DIRECTION ( 'NONE',  ( 0.0000000000000000000, 0.0000000000000000000, 1.000000000000000000 ) ) ;
#52 = CC_DESIGN_DATE_AND_TIME_ASSIGNMENT ( #121, #141, ( #87 ) ) ;
#53 = DIRECTION ( 'NONE',  ( 0.0000000000000000000, 0.0000000000000000000, 1.000000000000000000 ) ) ;
#54 = ADVANCED_BREP_SHAPE_REPRESENTATION ( 'Web Model 45580', ( #164, #109 ), #63 ) ;
#55 = FACE_OUTER_BOUND ( 'NONE', #122, .T. ) ;
#56 = SECURITY_CLASSIFICATION_LEVEL ( 'unclassified' ) ;
#57 = FACE_OUTER_BOUND ( 'NONE', #117, .T. ) ;
#58 = CC_DESIGN_PERSON_AND_ORGANIZATION_ASSIGNMENT ( #139, #115, ( #105 ) ) ;
#59 = LOCAL_TIME ( 10, 18, 6.000000000000000000, #76 ) ;
#60 = SHAPE_DEFINITION_REPRESENTATION ( #17, #54 ) ;
#61 = EDGE_CURVE ( 'NONE', #16, #158, #134, .T. ) ;
#62 = DIRECTION ( 'NONE',  ( 0.0000000000000000000, 0.0000000000000000000, 1.000000000000000000 ) ) ;
#63 =( GEOMETRIC_REPRESENTATION_CONTEXT ( 3 ) GLOBAL_UNCERTAINTY_ASSIGNED_CONTEXT ( ( #119 ) ) GLOBAL_UNIT_ASSIGNED_CONTEXT ( ( #11, #50, #152 ) ) REPRESENTATION_CONTEXT ( 'NONE', 'WORKASPACE' ) );
#64 = FACE_OUTER_BOUND ( 'NONE', #70, .T. ) ;
#65 = CARTESIAN_POINT ( 'NONE',  ( 0.0000000000000000000, 0.0000000000000000000, -4.000000000000000000 ) ) ;
#66 = CARTESIAN_POINT ( 'NONE',  ( -15.00000000000000000, 1.836970198721029600E-015, 0.0000000000000000000 ) ) ;
#67 = CALENDAR_DATE ( 2017, 31, 1 ) ;
#68 = CC_DESIGN_DATE_AND_TIME_ASSIGNMENT ( #130, #84, ( #105 ) ) ;
#69 = PERSON_AND_ORGANIZATION ( #147, #4 ) ;
#70 = EDGE_LOOP ( 'NONE', ( #151, #166, #98, #160 ) ) ;
#71 = CIRCLE ( 'NONE', #81, 15.00000000000000000 ) ;
#72 = PRODUCT ( 'Web Model 45580', 'Web Model 45580', '', ( #43 ) ) ;
#73 = FACE_OUTER_BOUND ( 'NONE', #25, .T. ) ;
#74 = EDGE_CURVE ( 'NONE', #16, #2, #104, .T. ) ;
#75 = DIRECTION ( 'NONE',  ( 1.000000000000000000, 0.0000000000000000000, 0.0000000000000000000 ) ) ;
#76 = COORDINATED_UNIVERSAL_TIME_OFFSET ( 5, 0, .BEHIND. ) ;
#77 = ORIENTED_EDGE ( 'NONE', *, *, #93, .T. ) ;
#78 = DIRECTION ( 'NONE',  ( 1.000000000000000000, 0.0000000000000000000, -0.0000000000000000000 ) ) ;
#79 = APPROVAL ( #45, 'UNSPECIFIED' ) ;
#80 = DIRECTION ( 'NONE',  ( 0.0000000000000000000, 0.0000000000000000000, 1.000000000000000000 ) ) ;
#81 = AXIS2_PLACEMENT_3D ( 'NONE', #169, #80, #75 ) ;
#82 = ADVANCED_FACE ( 'NONE', ( #64 ), #108, .T. ) ;
#83 = ORIENTED_EDGE ( 'NONE', *, *, #74, .F. ) ;
#84 = DATE_TIME_ROLE ( 'creation_date' ) ;
#85 = ORIENTED_EDGE ( 'NONE', *, *, #86, .F. ) ;
#86 = EDGE_CURVE ( 'NONE', #2, #18, #71, .T. ) ;
#87 = SECURITY_CLASSIFICATION ( '', '', #56 ) ;
#88 = AXIS2_PLACEMENT_3D ( 'NONE', #65, #38, #173 ) ;
#89 = CLOSED_SHELL ( 'NONE', ( #30, #82, #156, #10 ) ) ;
#90 = PERSON_AND_ORGANIZATION ( #147, #4 ) ;
#91 = CC_DESIGN_APPROVAL ( #79, ( #87 ) ) ;
#92 = COORDINATED_UNIVERSAL_TIME_OFFSET ( 5, 0, .BEHIND. ) ;
#93 = EDGE_CURVE ( 'NONE', #158, #18, #8, .T. ) ;
#94 = CALENDAR_DATE ( 2017, 31, 1 ) ;
#95 = DIRECTION ( 'NONE',  ( 1.000000000000000000, 0.0000000000000000000, 0.0000000000000000000 ) ) ;
#96 = PRODUCT_RELATED_PRODUCT_CATEGORY ( 'detail', '', ( #72 ) ) ;
#97 = DIRECTION ( 'NONE',  ( 0.0000000000000000000, 0.0000000000000000000, 1.000000000000000000 ) ) ;
#98 = ORIENTED_EDGE ( 'NONE', *, *, #74, .T. ) ;
#99 = DIRECTION ( 'NONE',  ( 0.0000000000000000000, 0.0000000000000000000, 1.000000000000000000 ) ) ;
#100 = DIRECTION ( 'NONE',  ( 0.0000000000000000000, 0.0000000000000000000, 1.000000000000000000 ) ) ;
#101 = PERSON_AND_ORGANIZATION_ROLE ( 'creator' ) ;
#102 = APPLICATION_PROTOCOL_DEFINITION ( 'international standard', 'config_control_design', 1994, #138 ) ;
#103 = AXIS2_PLACEMENT_3D ( 'NONE', #150, #99, #95 ) ;
#104 = LINE ( 'NONE', #6, #14 ) ;
#105 = PRODUCT_DEFINITION ( 'UNKNOWN', '', #110, #26 ) ;
#106 = DATE_AND_TIME ( #94, #133 ) ;
#107 = APPROVAL_DATE_TIME ( #106, #79 ) ;
#108 = CYLINDRICAL_SURFACE ( 'NONE', #132, 15.00000000000000000 ) ;
#109 = AXIS2_PLACEMENT_3D ( 'NONE', #137, #51, #125 ) ;
#110 = PRODUCT_DEFINITION_FORMATION_WITH_SPECIFIED_SOURCE ( 'ANY', '', #72, .NOT_KNOWN. ) ;
#111 = CIRCLE ( 'NONE', #149, 15.00000000000000000 ) ;
#112 = APPLICATION_PROTOCOL_DEFINITION ( 'international standard', 'config_control_design', 1994, #33 ) ;
#113 = ORIENTED_EDGE ( 'NONE', *, *, #61, .F. ) ;
#114 = APPROVAL_STATUS ( 'not_yet_approved' ) ;
#115 = PERSON_AND_ORGANIZATION_ROLE ( 'creator' ) ;
#116 = LOCAL_TIME ( 10, 18, 6.000000000000000000, #162 ) ;
#117 = EDGE_LOOP ( 'NONE', ( #39, #29 ) ) ;
#118 = APPROVAL ( #114, 'UNSPECIFIED' ) ;
#119 = UNCERTAINTY_MEASURE_WITH_UNIT (LENGTH_MEASURE( 1.000000000000000100E-005 ), #11, 'distance_accuracy_value', 'NONE');
#120 = LOCAL_TIME ( 10, 18, 6.000000000000000000, #144 ) ;
#121 = DATE_AND_TIME ( #7, #116 ) ;
#122 = EDGE_LOOP ( 'NONE', ( #113, #148 ) ) ;
#123 = CARTESIAN_POINT ( 'NONE',  ( -15.00000000000000000, 1.836970198721029600E-015, -4.000000000000000000 ) ) ;
#124 = DIRECTION ( 'NONE',  ( 0.0000000000000000000, 0.0000000000000000000, 1.000000000000000000 ) ) ;
#125 = DIRECTION ( 'NONE',  ( 1.000000000000000000, 0.0000000000000000000, 0.0000000000000000000 ) ) ;
#126 = PERSON_AND_ORGANIZATION_ROLE ( 'design_owner' ) ;
#127 = APPROVAL_ROLE ( '' ) ;
#128 = PERSON_AND_ORGANIZATION ( #147, #4 ) ;
#129 = CC_DESIGN_APPROVAL ( #118, ( #110 ) ) ;
#130 = DATE_AND_TIME ( #46, #120 ) ;
#131 = CIRCLE ( 'NONE', #103, 15.00000000000000000 ) ;
#132 = AXIS2_PLACEMENT_3D ( 'NONE', #37, #140, #172 ) ;
#133 = LOCAL_TIME ( 10, 18, 6.000000000000000000, #34 ) ;
#134 = CIRCLE ( 'NONE', #165, 15.00000000000000000 ) ;
#135 = CARTESIAN_POINT ( 'NONE',  ( 0.0000000000000000000, 0.0000000000000000000, 0.0000000000000000000 ) ) ;
#136 = AXIS2_PLACEMENT_3D ( 'NONE', #20, #124, #42 ) ;
#137 = CARTESIAN_POINT ( 'NONE',  ( 0.0000000000000000000, 0.0000000000000000000, 0.0000000000000000000 ) ) ;
#138 = APPLICATION_CONTEXT ( 'configuration controlled 3d designs of mechanical parts and assemblies' ) ;
#139 = PERSON_AND_ORGANIZATION ( #147, #4 ) ;
#140 = DIRECTION ( 'NONE',  ( 0.0000000000000000000, 0.0000000000000000000, 1.000000000000000000 ) ) ;
#141 = DATE_TIME_ROLE ( 'classification_date' ) ;
#142 = PERSON_AND_ORGANIZATION_ROLE ( 'design_supplier' ) ;
#143 = APPROVAL_PERSON_ORGANIZATION ( #90, #118, #127 ) ;
#144 = COORDINATED_UNIVERSAL_TIME_OFFSET ( 5, 0, .BEHIND. ) ;
#145 = EDGE_CURVE ( 'NONE', #158, #16, #131, .T. ) ;
#146 = CC_DESIGN_PERSON_AND_ORGANIZATION_ASSIGNMENT ( #69, #101, ( #110 ) ) ;
#147 = PERSON ( 'UNSPECIFIED', 'UNSPECIFIED', 'UNSPECIFIED', ('UNSPECIFIED'), ('UNSPECIFIED'), ('UNSPECIFIED') ) ;
#148 = ORIENTED_EDGE ( 'NONE', *, *, #145, .F. ) ;
#149 = AXIS2_PLACEMENT_3D ( 'NONE', #135, #62, #49 ) ;
#150 = CARTESIAN_POINT ( 'NONE',  ( 0.0000000000000000000, 0.0000000000000000000, -4.000000000000000000 ) ) ;
#151 = ORIENTED_EDGE ( 'NONE', *, *, #93, .F. ) ;
#152 =( NAMED_UNIT ( * ) SI_UNIT ( $, .STERADIAN. ) SOLID_ANGLE_UNIT ( ) );
#153 = CARTESIAN_POINT ( 'NONE',  ( 15.00000000000000000, 0.0000000000000000000, -4.000000000000000000 ) ) ;
#154 = APPROVAL ( #23, 'UNSPECIFIED' ) ;
#155 = CARTESIAN_POINT ( 'NONE',  ( 0.0000000000000000000, 0.0000000000000000000, 0.0000000000000000000 ) ) ;
#156 = ADVANCED_FACE ( 'NONE', ( #55 ), #41, .F. ) ;
#157 = CARTESIAN_POINT ( 'NONE',  ( 15.00000000000000000, 0.0000000000000000000, 0.0000000000000000000 ) ) ;
#158 = VERTEX_POINT ( 'NONE', #40 ) ;
#159 = EDGE_CURVE ( 'NONE', #18, #2, #111, .T. ) ;
#160 = ORIENTED_EDGE ( 'NONE', *, *, #159, .F. ) ;
#161 = CC_DESIGN_SECURITY_CLASSIFICATION ( #87, ( #110 ) ) ;
#162 = COORDINATED_UNIVERSAL_TIME_OFFSET ( 5, 0, .BEHIND. ) ;
#163 = ORIENTED_EDGE ( 'NONE', *, *, #61, .T. ) ;
#164 = MANIFOLD_SOLID_BREP ( 'Extrude1', #89 ) ;
#165 = AXIS2_PLACEMENT_3D ( 'NONE', #5, #100, #9 ) ;
#166 = ORIENTED_EDGE ( 'NONE', *, *, #145, .T. ) ;
#167 = APPROVAL_DATE_TIME ( #28, #118 ) ;
#168 = PERSON_AND_ORGANIZATION ( #147, #4 ) ;
#169 = CARTESIAN_POINT ( 'NONE',  ( 0.0000000000000000000, 0.0000000000000000000, 0.0000000000000000000 ) ) ;
#170 = CC_DESIGN_PERSON_AND_ORGANIZATION_ASSIGNMENT ( #32, #142, ( #110 ) ) ;
#171 = VECTOR ( 'NONE', #97, 1000.000000000000000 ) ;
#172 = DIRECTION ( 'NONE',  ( 1.000000000000000000, 0.0000000000000000000, 0.0000000000000000000 ) ) ;
#173 = DIRECTION ( 'NONE',  ( 1.000000000000000000, 0.0000000000000000000, 0.0000000000000000000 ) ) ;
#174 = CC_DESIGN_APPROVAL ( #154, ( #105 ) ) ;
#175 = APPROVAL_ROLE ( '' ) ;
ENDSEC;
END-ISO-10303-21;
