ISO-10303-21;
HEADER;
FILE_DESCRIPTION (( 'STEP AP203' ),
    '1' );
FILE_NAME ('Web Model Lightsmyth Gratings_16874.step',
    '2021-03-11T20:27:42',
    ( '' ),
    ( '' ),
    'SwSTEP 2.0',
    'SolidWorks 2018',
    '' );
FILE_SCHEMA (( 'CONFIG_CONTROL_DESIGN' ));
ENDSEC;

DATA;
#1 = FACE_OUTER_BOUND ( 'NONE', #115, .T. ) ;
#2 = EDGE_LOOP ( 'NONE', ( #233, #184, #92, #49 ) ) ;
#3 = CARTESIAN_POINT ( 'NONE',  ( -12.00000000000000000, -7.000000000000000000, 0.6750000000000000444 ) ) ;
#4 = AXIS2_PLACEMENT_3D ( 'NONE', #39, #167, #127 ) ;
#5 = DIRECTION ( 'NONE',  ( 0.0000000000000000000, 0.0000000000000000000, -1.000000000000000000 ) ) ;
#6 = DIRECTION ( 'NONE',  ( -1.000000000000000000, -0.0000000000000000000, -0.0000000000000000000 ) ) ;
#7 = DIRECTION ( 'NONE',  ( -0.0000000000000000000, -1.000000000000000000, -0.0000000000000000000 ) ) ;
#8 = DIRECTION ( 'NONE',  ( 1.000000000000000000, 0.0000000000000000000, 0.0000000000000000000 ) ) ;
#9 = PLANE ( 'NONE',  #214 ) ;
#10 = DATE_TIME_ROLE ( 'classification_date' ) ;
#11 = DIRECTION ( 'NONE',  ( -1.000000000000000000, 0.0000000000000000000, 0.0000000000000000000 ) ) ;
#12 = FACE_OUTER_BOUND ( 'NONE', #177, .T. ) ;
#13 = APPLICATION_CONTEXT ( 'configuration controlled 3d designs of mechanical parts and assemblies' ) ;
#14 = DATE_AND_TIME ( #216, #69 ) ;
#15 = VECTOR ( 'NONE', #89, 1000.000000000000000 ) ;
#16 = APPROVAL_PERSON_ORGANIZATION ( #98, #196, #44 ) ;
#17 = DIRECTION ( 'NONE',  ( 0.0000000000000000000, 0.0000000000000000000, -1.000000000000000000 ) ) ;
#18 = LINE ( 'NONE', #186, #121 ) ;
#19 = CARTESIAN_POINT ( 'NONE',  ( -12.00000000000000000, -7.000000000000000000, 0.6750000000000000444 ) ) ;
#20 = DIRECTION ( 'NONE',  ( 0.0000000000000000000, -0.0000000000000000000, 1.000000000000000000 ) ) ;
#21 = EDGE_CURVE ( 'NONE', #97, #125, #66, .T. ) ;
#22 = CARTESIAN_POINT ( 'NONE',  ( 11.99999999999999822, -7.000000000000000000, 0.6750000000000000444 ) ) ;
#23 = VERTEX_POINT ( 'NONE', #35 ) ;
#24 = PERSON ( 'UNSPECIFIED', 'UNSPECIFIED', 'UNSPECIFIED', ('UNSPECIFIED'), ('UNSPECIFIED'), ('UNSPECIFIED') ) ;
#25 = APPROVAL_STATUS ( 'not_yet_approved' ) ;
#26 = APPLICATION_CONTEXT ( 'configuration controlled 3d designs of mechanical parts and assemblies' ) ;
#27 = DIRECTION ( 'NONE',  ( 0.0000000000000000000, 0.0000000000000000000, 1.000000000000000000 ) ) ;
#28 = DATE_TIME_ROLE ( 'creation_date' ) ;
#29 = PERSON_AND_ORGANIZATION ( #24, #139 ) ;
#30 = FACE_OUTER_BOUND ( 'NONE', #2, .T. ) ;
#31 = LOCAL_TIME ( 15, 27, 42.00000000000000000, #182 ) ;
#32 = ORIENTED_EDGE ( 'NONE', *, *, #138, .T. ) ;
#33 = CC_DESIGN_DATE_AND_TIME_ASSIGNMENT ( #137, #10, ( #63 ) ) ;
#34 = AXIS2_PLACEMENT_3D ( 'NONE', #147, #52, #20 ) ;
#35 = CARTESIAN_POINT ( 'NONE',  ( -12.00000000000000000, 7.000000000000000000, 0.6750000000000000444 ) ) ;
#36 = EDGE_LOOP ( 'NONE', ( #159, #223, #65, #170 ) ) ;
#37 = DIRECTION ( 'NONE',  ( -1.000000000000000000, 0.0000000000000000000, -0.0000000000000000000 ) ) ;
#38 = EDGE_CURVE ( 'NONE', #23, #97, #45, .T. ) ;
#39 = CARTESIAN_POINT ( 'NONE',  ( 0.0000000000000000000, 0.0000000000000000000, 0.6750000000000000444 ) ) ;
#40 = VECTOR ( 'NONE', #50, 1000.000000000000000 ) ;
#41 = DIRECTION ( 'NONE',  ( 0.0000000000000000000, -0.0000000000000000000, -1.000000000000000000 ) ) ;
#42 = PRODUCT ( 'Web Model Lightsmyth Gratings_16874', 'Web Model Lightsmyth Gratings_16874', '', ( #153 ) ) ;
#43 = DATE_AND_TIME ( #120, #81 ) ;
#44 = APPROVAL_ROLE ( '' ) ;
#45 = LINE ( 'NONE', #181, #156 ) ;
#46 = APPROVAL_PERSON_ORGANIZATION ( #67, #187, #59 ) ;
#47 = AXIS2_PLACEMENT_3D ( 'NONE', #232, #27, #192 ) ;
#48 = EDGE_CURVE ( 'NONE', #125, #188, #235, .T. ) ;
#49 = ORIENTED_EDGE ( 'NONE', *, *, #38, .T. ) ;
#50 = DIRECTION ( 'NONE',  ( 1.000000000000000000, 0.0000000000000000000, 0.0000000000000000000 ) ) ;
#51 = COORDINATED_UNIVERSAL_TIME_OFFSET ( 5, 0, .BEHIND. ) ;
#52 = DIRECTION ( 'NONE',  ( 0.0000000000000000000, 1.000000000000000000, 0.0000000000000000000 ) ) ;
#53 = LINE ( 'NONE', #205, #169 ) ;
#54 =( NAMED_UNIT ( * ) PLANE_ANGLE_UNIT ( ) SI_UNIT ( $, .RADIAN. ) );
#55 = ADVANCED_FACE ( 'NONE', ( #30 ), #123, .F. ) ;
#56 = PERSON_AND_ORGANIZATION ( #24, #139 ) ;
#57 = APPLICATION_PROTOCOL_DEFINITION ( 'international standard', 'config_control_design', 1994, #13 ) ;
#58 = PRODUCT_DEFINITION ( 'UNKNOWN', '', #203, #142 ) ;
#59 = APPROVAL_ROLE ( '' ) ;
#60 = APPROVAL_STATUS ( 'not_yet_approved' ) ;
#61 = EDGE_CURVE ( 'NONE', #199, #135, #178, .T. ) ;
#62 = LINE ( 'NONE', #129, #193 ) ;
#63 = SECURITY_CLASSIFICATION ( '', '', #106 ) ;
#64 = ORIENTED_EDGE ( 'NONE', *, *, #48, .F. ) ;
#65 = ORIENTED_EDGE ( 'NONE', *, *, #138, .F. ) ;
#66 = LINE ( 'NONE', #200, #107 ) ;
#67 = PERSON_AND_ORGANIZATION ( #24, #139 ) ;
#68 = CARTESIAN_POINT ( 'NONE',  ( -12.00000000000000000, 7.000000000000000000, 0.0000000000000000000 ) ) ;
#69 = LOCAL_TIME ( 15, 27, 42.00000000000000000, #113 ) ;
#70 = CARTESIAN_POINT ( 'NONE',  ( 11.99999999999999822, -7.000000000000000000, 0.0000000000000000000 ) ) ;
#71 = DIRECTION ( 'NONE',  ( 0.0000000000000000000, 1.000000000000000000, 0.0000000000000000000 ) ) ;
#72 = APPROVAL_DATE_TIME ( #234, #119 ) ;
#73 = VECTOR ( 'NONE', #204, 1000.000000000000000 ) ;
#74 = ADVANCED_BREP_SHAPE_REPRESENTATION ( 'Web Model Lightsmyth Gratings_16874', ( #229, #47 ), #162 ) ;
#75 = DIRECTION ( 'NONE',  ( -0.0000000000000000000, -0.0000000000000000000, -1.000000000000000000 ) ) ;
#76 = ORIENTED_EDGE ( 'NONE', *, *, #111, .T. ) ;
#77 = UNCERTAINTY_MEASURE_WITH_UNIT (LENGTH_MEASURE( 1.000000000000000082E-05 ), #110, 'distance_accuracy_value', 'NONE');
#78 = ORIENTED_EDGE ( 'NONE', *, *, #85, .F. ) ;
#79 = VERTEX_POINT ( 'NONE', #141 ) ;
#80 = EDGE_CURVE ( 'NONE', #199, #125, #91, .T. ) ;
#81 = LOCAL_TIME ( 15, 27, 42.00000000000000000, #116 ) ;
#82 = ORIENTED_EDGE ( 'NONE', *, *, #157, .F. ) ;
#83 = VECTOR ( 'NONE', #87, 1000.000000000000000 ) ;
#84 = CC_DESIGN_SECURITY_CLASSIFICATION ( #63, ( #203 ) ) ;
#85 = EDGE_CURVE ( 'NONE', #79, #23, #53, .T. ) ;
#86 = DIRECTION ( 'NONE',  ( -0.0000000000000000000, -1.000000000000000000, -0.0000000000000000000 ) ) ;
#87 = DIRECTION ( 'NONE',  ( -0.0000000000000000000, -0.0000000000000000000, -1.000000000000000000 ) ) ;
#88 = PLANE ( 'NONE',  #4 ) ;
#89 = DIRECTION ( 'NONE',  ( 0.0000000000000000000, 1.000000000000000000, 0.0000000000000000000 ) ) ;
#90 = CARTESIAN_POINT ( 'NONE',  ( -12.00000000000000000, -7.000000000000000000, 0.6750000000000000444 ) ) ;
#91 = LINE ( 'NONE', #19, #145 ) ;
#92 = ORIENTED_EDGE ( 'NONE', *, *, #114, .F. ) ;
#93 = PERSON_AND_ORGANIZATION_ROLE ( 'classification_officer' ) ;
#94 = EDGE_CURVE ( 'NONE', #188, #219, #96, .T. ) ;
#95 = AXIS2_PLACEMENT_3D ( 'NONE', #3, #118, #17 ) ;
#96 = LINE ( 'NONE', #70, #15 ) ;
#97 = VERTEX_POINT ( 'NONE', #166 ) ;
#98 = PERSON_AND_ORGANIZATION ( #24, #139 ) ;
#99 = EDGE_CURVE ( 'NONE', #79, #219, #104, .T. ) ;
#100 = APPROVAL_PERSON_ORGANIZATION ( #198, #119, #149 ) ;
#101 = PERSON_AND_ORGANIZATION ( #24, #139 ) ;
#102 = AXIS2_PLACEMENT_3D ( 'NONE', #227, #5, #37 ) ;
#103 = APPROVAL_DATE_TIME ( #43, #187 ) ;
#104 = LINE ( 'NONE', #126, #83 ) ;
#105 = ADVANCED_FACE ( 'NONE', ( #218 ), #164, .F. ) ;
#106 = SECURITY_CLASSIFICATION_LEVEL ( 'unclassified' ) ;
#107 = VECTOR ( 'NONE', #86, 1000.000000000000000 ) ;
#108 = ORIENTED_EDGE ( 'NONE', *, *, #111, .F. ) ;
#109 = ADVANCED_FACE ( 'NONE', ( #150 ), #183, .T. ) ;
#110 =( LENGTH_UNIT ( ) NAMED_UNIT ( * ) SI_UNIT ( .MILLI., .METRE. ) );
#111 = EDGE_CURVE ( 'NONE', #219, #97, #174, .T. ) ;
#112 = PERSON_AND_ORGANIZATION ( #24, #139 ) ;
#113 = COORDINATED_UNIVERSAL_TIME_OFFSET ( 5, 0, .BEHIND. ) ;
#114 = EDGE_CURVE ( 'NONE', #23, #199, #158, .T. ) ;
#115 = EDGE_LOOP ( 'NONE', ( #76, #179, #78, #189 ) ) ;
#116 = COORDINATED_UNIVERSAL_TIME_OFFSET ( 5, 0, .BEHIND. ) ;
#117 = APPROVAL_DATE_TIME ( #217, #196 ) ;
#118 = DIRECTION ( 'NONE',  ( 1.000000000000000000, 0.0000000000000000000, 0.0000000000000000000 ) ) ;
#119 = APPROVAL ( #25, 'UNSPECIFIED' ) ;
#120 = CALENDAR_DATE ( 2021, 11, 3 ) ;
#121 = VECTOR ( 'NONE', #71, 1000.000000000000000 ) ;
#122 = ORIENTED_EDGE ( 'NONE', *, *, #21, .F. ) ;
#123 = PLANE ( 'NONE',  #95 ) ;
#124 = PERSON_AND_ORGANIZATION ( #24, #139 ) ;
#125 = VERTEX_POINT ( 'NONE', #185 ) ;
#126 = CARTESIAN_POINT ( 'NONE',  ( 11.99999999999999822, 7.000000000000000000, 0.6750000000000000444 ) ) ;
#127 = DIRECTION ( 'NONE',  ( -1.000000000000000000, 0.0000000000000000000, -0.0000000000000000000 ) ) ;
#128 = CALENDAR_DATE ( 2021, 11, 3 ) ;
#129 = CARTESIAN_POINT ( 'NONE',  ( 11.99999999999999822, -7.000000000000000000, 0.6750000000000000444 ) ) ;
#130 = CARTESIAN_POINT ( 'NONE',  ( 11.99999999999999822, 7.000000000000000000, 0.0000000000000000000 ) ) ;
#131 = ADVANCED_FACE ( 'NONE', ( #12 ), #88, .F. ) ;
#132 = CC_DESIGN_PERSON_AND_ORGANIZATION_ASSIGNMENT ( #56, #208, ( #42 ) ) ;
#133 = PLANE ( 'NONE',  #144 ) ;
#134 = EDGE_LOOP ( 'NONE', ( #194, #82, #202, #146 ) ) ;
#135 = VERTEX_POINT ( 'NONE', #22 ) ;
#136 = CC_DESIGN_PERSON_AND_ORGANIZATION_ASSIGNMENT ( #124, #93, ( #63 ) ) ;
#137 = DATE_AND_TIME ( #128, #155 ) ;
#138 = EDGE_CURVE ( 'NONE', #135, #79, #18, .T. ) ;
#139 = ORGANIZATION ( 'UNSPECIFIED', 'UNSPECIFIED', '' ) ;
#140 = ORIENTED_EDGE ( 'NONE', *, *, #85, .T. ) ;
#141 = CARTESIAN_POINT ( 'NONE',  ( 11.99999999999999822, 7.000000000000000000, 0.6750000000000000444 ) ) ;
#142 = DESIGN_CONTEXT ( 'detailed design', #26, 'design' ) ;
#143 = DIRECTION ( 'NONE',  ( -0.0000000000000000000, -0.0000000000000000000, -1.000000000000000000 ) ) ;
#144 = AXIS2_PLACEMENT_3D ( 'NONE', #211, #171, #41 ) ;
#145 = VECTOR ( 'NONE', #143, 1000.000000000000000 ) ;
#146 = ORIENTED_EDGE ( 'NONE', *, *, #80, .T. ) ;
#147 = CARTESIAN_POINT ( 'NONE',  ( -12.00000000000000000, -7.000000000000000000, 0.6750000000000000444 ) ) ;
#148 = CC_DESIGN_APPROVAL ( #119, ( #63 ) ) ;
#149 = APPROVAL_ROLE ( '' ) ;
#150 = FACE_OUTER_BOUND ( 'NONE', #236, .T. ) ;
#151 = ADVANCED_FACE ( 'NONE', ( #228 ), #9, .F. ) ;
#152 = PERSON_AND_ORGANIZATION_ROLE ( 'creator' ) ;
#153 = MECHANICAL_CONTEXT ( 'NONE', #13, 'mechanical' ) ;
#154 = APPROVAL_STATUS ( 'not_yet_approved' ) ;
#155 = LOCAL_TIME ( 15, 27, 42.00000000000000000, #165 ) ;
#156 = VECTOR ( 'NONE', #220, 1000.000000000000000 ) ;
#157 = EDGE_CURVE ( 'NONE', #135, #188, #62, .T. ) ;
#158 = LINE ( 'NONE', #225, #213 ) ;
#159 = ORIENTED_EDGE ( 'NONE', *, *, #94, .T. ) ;
#160 = VECTOR ( 'NONE', #8, 1000.000000000000000 ) ;
#161 = CLOSED_SHELL ( 'NONE', ( #151, #230, #55, #105, #131, #109 ) ) ;
#162 =( GEOMETRIC_REPRESENTATION_CONTEXT ( 3 ) GLOBAL_UNCERTAINTY_ASSIGNED_CONTEXT ( ( #77 ) ) GLOBAL_UNIT_ASSIGNED_CONTEXT ( ( #110, #54, #190 ) ) REPRESENTATION_CONTEXT ( 'NONE', 'WORKASPACE' ) );
#163 = PRODUCT_RELATED_PRODUCT_CATEGORY ( 'detail', '', ( #42 ) ) ;
#164 = PLANE ( 'NONE',  #34 ) ;
#165 = COORDINATED_UNIVERSAL_TIME_OFFSET ( 5, 0, .BEHIND. ) ;
#166 = CARTESIAN_POINT ( 'NONE',  ( -12.00000000000000000, 7.000000000000000000, 0.0000000000000000000 ) ) ;
#167 = DIRECTION ( 'NONE',  ( 0.0000000000000000000, 0.0000000000000000000, -1.000000000000000000 ) ) ;
#168 = PERSON_AND_ORGANIZATION_ROLE ( 'design_supplier' ) ;
#169 = VECTOR ( 'NONE', #6, 1000.000000000000000 ) ;
#170 = ORIENTED_EDGE ( 'NONE', *, *, #157, .T. ) ;
#171 = DIRECTION ( 'NONE',  ( 0.0000000000000000000, -1.000000000000000000, 0.0000000000000000000 ) ) ;
#172 = CALENDAR_DATE ( 2021, 11, 3 ) ;
#173 = CARTESIAN_POINT ( 'NONE',  ( 11.99999999999999822, -7.000000000000000000, 0.6750000000000000444 ) ) ;
#174 = LINE ( 'NONE', #68, #73 ) ;
#175 = ORIENTED_EDGE ( 'NONE', *, *, #94, .F. ) ;
#176 = CC_DESIGN_APPROVAL ( #196, ( #58 ) ) ;
#177 = EDGE_LOOP ( 'NONE', ( #32, #140, #209, #215 ) ) ;
#178 = LINE ( 'NONE', #180, #160 ) ;
#179 = ORIENTED_EDGE ( 'NONE', *, *, #38, .F. ) ;
#180 = CARTESIAN_POINT ( 'NONE',  ( -12.00000000000000000, -7.000000000000000000, 0.6750000000000000444 ) ) ;
#181 = CARTESIAN_POINT ( 'NONE',  ( -12.00000000000000000, 7.000000000000000000, 0.6750000000000000444 ) ) ;
#182 = COORDINATED_UNIVERSAL_TIME_OFFSET ( 5, 0, .BEHIND. ) ;
#183 = PLANE ( 'NONE',  #102 ) ;
#184 = ORIENTED_EDGE ( 'NONE', *, *, #80, .F. ) ;
#185 = CARTESIAN_POINT ( 'NONE',  ( -12.00000000000000000, -7.000000000000000000, 0.0000000000000000000 ) ) ;
#186 = CARTESIAN_POINT ( 'NONE',  ( 11.99999999999999822, -7.000000000000000000, 0.6750000000000000444 ) ) ;
#187 = APPROVAL ( #60, 'UNSPECIFIED' ) ;
#188 = VERTEX_POINT ( 'NONE', #210 ) ;
#189 = ORIENTED_EDGE ( 'NONE', *, *, #99, .T. ) ;
#190 =( NAMED_UNIT ( * ) SI_UNIT ( $, .STERADIAN. ) SOLID_ANGLE_UNIT ( ) );
#191 = PERSON_AND_ORGANIZATION_ROLE ( 'creator' ) ;
#192 = DIRECTION ( 'NONE',  ( 1.000000000000000000, 0.0000000000000000000, 0.0000000000000000000 ) ) ;
#193 = VECTOR ( 'NONE', #75, 1000.000000000000000 ) ;
#194 = ORIENTED_EDGE ( 'NONE', *, *, #48, .T. ) ;
#195 = LOCAL_TIME ( 15, 27, 42.00000000000000000, #51 ) ;
#196 = APPROVAL ( #154, 'UNSPECIFIED' ) ;
#197 = CC_DESIGN_PERSON_AND_ORGANIZATION_ASSIGNMENT ( #29, #152, ( #203 ) ) ;
#198 = PERSON_AND_ORGANIZATION ( #24, #139 ) ;
#199 = VERTEX_POINT ( 'NONE', #90 ) ;
#200 = CARTESIAN_POINT ( 'NONE',  ( -12.00000000000000000, -7.000000000000000000, 0.0000000000000000000 ) ) ;
#201 = SHAPE_DEFINITION_REPRESENTATION ( #226, #74 ) ;
#202 = ORIENTED_EDGE ( 'NONE', *, *, #61, .F. ) ;
#203 = PRODUCT_DEFINITION_FORMATION_WITH_SPECIFIED_SOURCE ( 'ANY', '', #42, .NOT_KNOWN. ) ;
#204 = DIRECTION ( 'NONE',  ( -1.000000000000000000, -0.0000000000000000000, -0.0000000000000000000 ) ) ;
#205 = CARTESIAN_POINT ( 'NONE',  ( -12.00000000000000000, 7.000000000000000000, 0.6750000000000000444 ) ) ;
#206 = CC_DESIGN_PERSON_AND_ORGANIZATION_ASSIGNMENT ( #112, #168, ( #203 ) ) ;
#207 = DIRECTION ( 'NONE',  ( 0.0000000000000000000, 0.0000000000000000000, 1.000000000000000000 ) ) ;
#208 = PERSON_AND_ORGANIZATION_ROLE ( 'design_owner' ) ;
#209 = ORIENTED_EDGE ( 'NONE', *, *, #114, .T. ) ;
#210 = CARTESIAN_POINT ( 'NONE',  ( 11.99999999999999822, -7.000000000000000000, 0.0000000000000000000 ) ) ;
#211 = CARTESIAN_POINT ( 'NONE',  ( -12.00000000000000000, 7.000000000000000000, 0.6750000000000000444 ) ) ;
#212 = CC_DESIGN_PERSON_AND_ORGANIZATION_ASSIGNMENT ( #101, #191, ( #58 ) ) ;
#213 = VECTOR ( 'NONE', #7, 1000.000000000000000 ) ;
#214 = AXIS2_PLACEMENT_3D ( 'NONE', #173, #11, #207 ) ;
#215 = ORIENTED_EDGE ( 'NONE', *, *, #61, .T. ) ;
#216 = CALENDAR_DATE ( 2021, 11, 3 ) ;
#217 = DATE_AND_TIME ( #172, #195 ) ;
#218 = FACE_OUTER_BOUND ( 'NONE', #134, .T. ) ;
#219 = VERTEX_POINT ( 'NONE', #130 ) ;
#220 = DIRECTION ( 'NONE',  ( -0.0000000000000000000, -0.0000000000000000000, -1.000000000000000000 ) ) ;
#221 = CARTESIAN_POINT ( 'NONE',  ( -12.00000000000000000, -7.000000000000000000, 0.0000000000000000000 ) ) ;
#222 = CALENDAR_DATE ( 2021, 11, 3 ) ;
#223 = ORIENTED_EDGE ( 'NONE', *, *, #99, .F. ) ;
#224 = CC_DESIGN_DATE_AND_TIME_ASSIGNMENT ( #14, #28, ( #58 ) ) ;
#225 = CARTESIAN_POINT ( 'NONE',  ( -12.00000000000000000, -7.000000000000000000, 0.6750000000000000444 ) ) ;
#226 = PRODUCT_DEFINITION_SHAPE ( 'NONE', 'NONE',  #58 ) ;
#227 = CARTESIAN_POINT ( 'NONE',  ( 0.0000000000000000000, 0.0000000000000000000, 0.0000000000000000000 ) ) ;
#228 = FACE_OUTER_BOUND ( 'NONE', #36, .T. ) ;
#229 = MANIFOLD_SOLID_BREP ( 'Boss-Extrude1', #161 ) ;
#230 = ADVANCED_FACE ( 'NONE', ( #1 ), #133, .F. ) ;
#231 = APPLICATION_PROTOCOL_DEFINITION ( 'international standard', 'config_control_design', 1994, #26 ) ;
#232 = CARTESIAN_POINT ( 'NONE',  ( 0.0000000000000000000, 0.0000000000000000000, 0.0000000000000000000 ) ) ;
#233 = ORIENTED_EDGE ( 'NONE', *, *, #21, .T. ) ;
#234 = DATE_AND_TIME ( #222, #31 ) ;
#235 = LINE ( 'NONE', #221, #40 ) ;
#236 = EDGE_LOOP ( 'NONE', ( #175, #64, #122, #108 ) ) ;
#237 = CC_DESIGN_APPROVAL ( #187, ( #203 ) ) ;
ENDSEC;
END-ISO-10303-21;
