ISO-10303-21;
HEADER;
FILE_DESCRIPTION (( 'STEP AP203' ),
    '1' );
FILE_NAME ('Web Model 68740_47688.step',
    '2017-03-06T19:17:19',
    ( '' ),
    ( '' ),
    'SwSTEP 2.0',
    'SolidWorks 2016',
    '' );
FILE_SCHEMA (( 'CONFIG_CONTROL_DESIGN' ));
ENDSEC;

DATA;
#1 = DATE_AND_TIME ( #72, #27 ) ;
#2 = DIRECTION ( 'NONE',  ( 0.0000000000000000000, 0.0000000000000000000, -1.000000000000000000 ) ) ;
#3 = APPROVAL_PERSON_ORGANIZATION ( #50, #77, #73 ) ;
#4 = AXIS2_PLACEMENT_3D ( 'NONE', #118, #126, #28 ) ;
#5 = DIRECTION ( 'NONE',  ( 1.000000000000000000, 0.0000000000000000000, 0.0000000000000000000 ) ) ;
#6 = PRODUCT ( 'Web Model 68740_47688', 'Web Model 68740_47688', '', ( #124 ) ) ;
#7 = FACE_OUTER_BOUND ( 'NONE', #150, .T. ) ;
#8 = CC_DESIGN_DATE_AND_TIME_ASSIGNMENT ( #37, #117, ( #167 ) ) ;
#9 = COORDINATED_UNIVERSAL_TIME_OFFSET ( 5, 0, .BEHIND. ) ;
#10 = DIRECTION ( 'NONE',  ( -1.000000000000000000, -0.0000000000000000000, -0.0000000000000000000 ) ) ;
#11 = PERSON_AND_ORGANIZATION ( #168, #116 ) ;
#12 = AXIS2_PLACEMENT_3D ( 'NONE', #104, #15, #2 ) ;
#13 = APPROVAL_ROLE ( '' ) ;
#14 = FACE_OUTER_BOUND ( 'NONE', #128, .T. ) ;
#15 = DIRECTION ( 'NONE',  ( 1.000000000000000000, 0.0000000000000000000, 0.0000000000000000000 ) ) ;
#16 = CARTESIAN_POINT ( 'NONE',  ( 3.000000000000000000, 0.0000000000000000000, 0.0000000000000000000 ) ) ;
#17 = APPROVAL ( #101, 'UNSPECIFIED' ) ;
#18 = PERSON_AND_ORGANIZATION ( #168, #116 ) ;
#19 = EDGE_CURVE ( 'NONE', #75, #140, #61, .T. ) ;
#20 =( GEOMETRIC_REPRESENTATION_CONTEXT ( 3 ) GLOBAL_UNCERTAINTY_ASSIGNED_CONTEXT ( ( #125 ) ) GLOBAL_UNIT_ASSIGNED_CONTEXT ( ( #76, #148, #163 ) ) REPRESENTATION_CONTEXT ( 'NONE', 'WORKASPACE' ) );
#21 = ORIENTED_EDGE ( 'NONE', *, *, #169, .F. ) ;
#22 = CARTESIAN_POINT ( 'NONE',  ( 0.0000000000000000000, 0.0000000000000000000, 0.0000000000000000000 ) ) ;
#23 = PERSON_AND_ORGANIZATION ( #168, #116 ) ;
#24 = ORIENTED_EDGE ( 'NONE', *, *, #19, .T. ) ;
#25 = CC_DESIGN_APPROVAL ( #17, ( #167 ) ) ;
#26 = PERSON_AND_ORGANIZATION_ROLE ( 'classification_officer' ) ;
#27 = LOCAL_TIME ( 14, 17, 19.00000000000000000, #151 ) ;
#28 = DIRECTION ( 'NONE',  ( 0.0000000000000000000, 0.0000000000000000000, -1.000000000000000000 ) ) ;
#29 = CYLINDRICAL_SURFACE ( 'NONE', #131, 25.00000000000000000 ) ;
#30 = CARTESIAN_POINT ( 'NONE',  ( 3.000000000000000000, 0.0000000000000000000, 0.0000000000000000000 ) ) ;
#31 = PLANE ( 'NONE',  #122 ) ;
#32 = EDGE_CURVE ( 'NONE', #75, #56, #63, .T. ) ;
#33 = ORIENTED_EDGE ( 'NONE', *, *, #129, .T. ) ;
#34 = ADVANCED_FACE ( 'NONE', ( #14 ), #172, .T. ) ;
#35 = CC_DESIGN_SECURITY_CLASSIFICATION ( #167, ( #115 ) ) ;
#36 = APPLICATION_CONTEXT ( 'configuration controlled 3d designs of mechanical parts and assemblies' ) ;
#37 = DATE_AND_TIME ( #98, #170 ) ;
#38 = DIRECTION ( 'NONE',  ( 0.0000000000000000000, 0.0000000000000000000, -1.000000000000000000 ) ) ;
#39 = SECURITY_CLASSIFICATION_LEVEL ( 'unclassified' ) ;
#40 = CIRCLE ( 'NONE', #12, 25.00000000000000000 ) ;
#41 = VERTEX_POINT ( 'NONE', #97 ) ;
#42 = CARTESIAN_POINT ( 'NONE',  ( 3.000000000000000000, 3.061616997868383000E-015, -25.00000000000000000 ) ) ;
#43 = DIRECTION ( 'NONE',  ( -1.000000000000000000, -0.0000000000000000000, -0.0000000000000000000 ) ) ;
#44 = PRODUCT_RELATED_PRODUCT_CATEGORY ( 'detail', '', ( #6 ) ) ;
#45 = AXIS2_PLACEMENT_3D ( 'NONE', #48, #109, #38 ) ;
#46 = PERSON_AND_ORGANIZATION_ROLE ( 'design_owner' ) ;
#47 = CALENDAR_DATE ( 2017, 6, 3 ) ;
#48 = CARTESIAN_POINT ( 'NONE',  ( 3.000000000000000000, 0.0000000000000000000, 0.0000000000000000000 ) ) ;
#49 = DATE_AND_TIME ( #113, #57 ) ;
#50 = PERSON_AND_ORGANIZATION ( #168, #116 ) ;
#51 = APPROVAL_DATE_TIME ( #1, #77 ) ;
#52 = AXIS2_PLACEMENT_3D ( 'NONE', #30, #106, #71 ) ;
#53 = PERSON_AND_ORGANIZATION_ROLE ( 'creator' ) ;
#54 = CIRCLE ( 'NONE', #89, 25.00000000000000000 ) ;
#55 = AXIS2_PLACEMENT_3D ( 'NONE', #22, #134, #99 ) ;
#56 = VERTEX_POINT ( 'NONE', #120 ) ;
#57 = LOCAL_TIME ( 14, 17, 19.00000000000000000, #160 ) ;
#58 = ADVANCED_FACE ( 'NONE', ( #110 ), #31, .F. ) ;
#59 = COORDINATED_UNIVERSAL_TIME_OFFSET ( 5, 0, .BEHIND. ) ;
#60 = CC_DESIGN_PERSON_AND_ORGANIZATION_ASSIGNMENT ( #18, #46, ( #6 ) ) ;
#61 = CIRCLE ( 'NONE', #45, 25.00000000000000000 ) ;
#62 = DATE_TIME_ROLE ( 'creation_date' ) ;
#63 = LINE ( 'NONE', #171, #67 ) ;
#64 = PLANE ( 'NONE',  #52 ) ;
#65 = CARTESIAN_POINT ( 'NONE',  ( 3.000000000000000000, 0.0000000000000000000, 0.0000000000000000000 ) ) ;
#66 = FACE_OUTER_BOUND ( 'NONE', #114, .T. ) ;
#67 = VECTOR ( 'NONE', #79, 1000.000000000000000 ) ;
#68 = PRODUCT_DEFINITION ( 'UNKNOWN', '', #115, #95 ) ;
#69 = PERSON_AND_ORGANIZATION_ROLE ( 'creator' ) ;
#70 = APPROVAL_PERSON_ORGANIZATION ( #142, #17, #13 ) ;
#71 = DIRECTION ( 'NONE',  ( 0.0000000000000000000, 0.0000000000000000000, -1.000000000000000000 ) ) ;
#72 = CALENDAR_DATE ( 2017, 6, 3 ) ;
#73 = APPROVAL_ROLE ( '' ) ;
#74 = APPROVAL_PERSON_ORGANIZATION ( #11, #123, #145 ) ;
#75 = VERTEX_POINT ( 'NONE', #137 ) ;
#76 =( LENGTH_UNIT ( ) NAMED_UNIT ( * ) SI_UNIT ( .MILLI., .METRE. ) );
#77 = APPROVAL ( #161, 'UNSPECIFIED' ) ;
#78 = CALENDAR_DATE ( 2017, 6, 3 ) ;
#79 = DIRECTION ( 'NONE',  ( -1.000000000000000000, -0.0000000000000000000, -0.0000000000000000000 ) ) ;
#80 = ADVANCED_FACE ( 'NONE', ( #66 ), #29, .T. ) ;
#81 = APPROVAL_DATE_TIME ( #156, #17 ) ;
#82 = DIRECTION ( 'NONE',  ( -1.000000000000000000, -0.0000000000000000000, -0.0000000000000000000 ) ) ;
#83 = PERSON_AND_ORGANIZATION ( #168, #116 ) ;
#84 = EDGE_CURVE ( 'NONE', #140, #41, #146, .T. ) ;
#85 = CC_DESIGN_APPROVAL ( #77, ( #68 ) ) ;
#86 = ORIENTED_EDGE ( 'NONE', *, *, #159, .T. ) ;
#87 = APPLICATION_CONTEXT ( 'configuration controlled 3d designs of mechanical parts and assemblies' ) ;
#88 = VECTOR ( 'NONE', #82, 1000.000000000000000 ) ;
#89 = AXIS2_PLACEMENT_3D ( 'NONE', #157, #164, #149 ) ;
#90 = DIRECTION ( 'NONE',  ( 0.0000000000000000000, 0.0000000000000000000, -1.000000000000000000 ) ) ;
#91 = DIRECTION ( 'NONE',  ( 0.0000000000000000000, 0.0000000000000000000, 1.000000000000000000 ) ) ;
#92 = MANIFOLD_SOLID_BREP ( 'Extrude1', #94 ) ;
#93 = EDGE_LOOP ( 'NONE', ( #165, #175 ) ) ;
#94 = CLOSED_SHELL ( 'NONE', ( #34, #80, #111, #58 ) ) ;
#95 = DESIGN_CONTEXT ( 'detailed design', #87, 'design' ) ;
#96 = CC_DESIGN_PERSON_AND_ORGANIZATION_ASSIGNMENT ( #121, #69, ( #68 ) ) ;
#97 = CARTESIAN_POINT ( 'NONE',  ( 0.0000000000000000000, 3.061616997868383000E-015, -25.00000000000000000 ) ) ;
#98 = CALENDAR_DATE ( 2017, 6, 3 ) ;
#99 = DIRECTION ( 'NONE',  ( 1.000000000000000000, 0.0000000000000000000, 0.0000000000000000000 ) ) ;
#100 = CIRCLE ( 'NONE', #4, 25.00000000000000000 ) ;
#101 = APPROVAL_STATUS ( 'not_yet_approved' ) ;
#102 = ORIENTED_EDGE ( 'NONE', *, *, #84, .F. ) ;
#103 = LOCAL_TIME ( 14, 17, 19.00000000000000000, #105 ) ;
#104 = CARTESIAN_POINT ( 'NONE',  ( 3.000000000000000000, 0.0000000000000000000, 0.0000000000000000000 ) ) ;
#105 = COORDINATED_UNIVERSAL_TIME_OFFSET ( 5, 0, .BEHIND. ) ;
#106 = DIRECTION ( 'NONE',  ( 1.000000000000000000, 0.0000000000000000000, 0.0000000000000000000 ) ) ;
#107 = CC_DESIGN_DATE_AND_TIME_ASSIGNMENT ( #132, #62, ( #68 ) ) ;
#108 = CARTESIAN_POINT ( 'NONE',  ( 0.0000000000000000000, 0.0000000000000000000, 0.0000000000000000000 ) ) ;
#109 = DIRECTION ( 'NONE',  ( 1.000000000000000000, 0.0000000000000000000, 0.0000000000000000000 ) ) ;
#110 = FACE_OUTER_BOUND ( 'NONE', #93, .T. ) ;
#111 = ADVANCED_FACE ( 'NONE', ( #7 ), #64, .T. ) ;
#112 = LOCAL_TIME ( 14, 17, 19.00000000000000000, #9 ) ;
#113 = CALENDAR_DATE ( 2017, 6, 3 ) ;
#114 = EDGE_LOOP ( 'NONE', ( #102, #147, #119, #86 ) ) ;
#115 = PRODUCT_DEFINITION_FORMATION_WITH_SPECIFIED_SOURCE ( 'ANY', '', #6, .NOT_KNOWN. ) ;
#116 = ORGANIZATION ( 'UNSPECIFIED', 'UNSPECIFIED', '' ) ;
#117 = DATE_TIME_ROLE ( 'classification_date' ) ;
#118 = CARTESIAN_POINT ( 'NONE',  ( 0.0000000000000000000, 0.0000000000000000000, 0.0000000000000000000 ) ) ;
#119 = ORIENTED_EDGE ( 'NONE', *, *, #32, .T. ) ;
#120 = CARTESIAN_POINT ( 'NONE',  ( 0.0000000000000000000, 0.0000000000000000000, 25.00000000000000000 ) ) ;
#121 = PERSON_AND_ORGANIZATION ( #168, #116 ) ;
#122 = AXIS2_PLACEMENT_3D ( 'NONE', #108, #5, #90 ) ;
#123 = APPROVAL ( #155, 'UNSPECIFIED' ) ;
#124 = MECHANICAL_CONTEXT ( 'NONE', #36, 'mechanical' ) ;
#125 = UNCERTAINTY_MEASURE_WITH_UNIT (LENGTH_MEASURE( 1.000000000000000100E-005 ), #76, 'distance_accuracy_value', 'NONE');
#126 = DIRECTION ( 'NONE',  ( 1.000000000000000000, 0.0000000000000000000, 0.0000000000000000000 ) ) ;
#127 = PERSON_AND_ORGANIZATION ( #168, #116 ) ;
#128 = EDGE_LOOP ( 'NONE', ( #21, #152, #33, #141 ) ) ;
#129 = EDGE_CURVE ( 'NONE', #41, #56, #54, .T. ) ;
#130 = PERSON_AND_ORGANIZATION_ROLE ( 'design_supplier' ) ;
#131 = AXIS2_PLACEMENT_3D ( 'NONE', #16, #10, #166 ) ;
#132 = DATE_AND_TIME ( #78, #103 ) ;
#133 = APPLICATION_PROTOCOL_DEFINITION ( 'international standard', 'config_control_design', 1994, #36 ) ;
#134 = DIRECTION ( 'NONE',  ( 0.0000000000000000000, 0.0000000000000000000, 1.000000000000000000 ) ) ;
#135 = CARTESIAN_POINT ( 'NONE',  ( 3.000000000000000000, 3.061616997868383000E-015, -25.00000000000000000 ) ) ;
#136 = CC_DESIGN_APPROVAL ( #123, ( #115 ) ) ;
#137 = CARTESIAN_POINT ( 'NONE',  ( 3.000000000000000000, 0.0000000000000000000, 25.00000000000000000 ) ) ;
#138 = ORIENTED_EDGE ( 'NONE', *, *, #169, .T. ) ;
#139 = PRODUCT_DEFINITION_SHAPE ( 'NONE', 'NONE',  #68 ) ;
#140 = VERTEX_POINT ( 'NONE', #135 ) ;
#141 = ORIENTED_EDGE ( 'NONE', *, *, #32, .F. ) ;
#142 = PERSON_AND_ORGANIZATION ( #168, #116 ) ;
#143 = SHAPE_DEFINITION_REPRESENTATION ( #139, #162 ) ;
#144 = CC_DESIGN_PERSON_AND_ORGANIZATION_ASSIGNMENT ( #83, #53, ( #115 ) ) ;
#145 = APPROVAL_ROLE ( '' ) ;
#146 = LINE ( 'NONE', #42, #88 ) ;
#147 = ORIENTED_EDGE ( 'NONE', *, *, #19, .F. ) ;
#148 =( NAMED_UNIT ( * ) PLANE_ANGLE_UNIT ( ) SI_UNIT ( $, .RADIAN. ) );
#149 = DIRECTION ( 'NONE',  ( 0.0000000000000000000, 0.0000000000000000000, -1.000000000000000000 ) ) ;
#150 = EDGE_LOOP ( 'NONE', ( #24, #138 ) ) ;
#151 = COORDINATED_UNIVERSAL_TIME_OFFSET ( 5, 0, .BEHIND. ) ;
#152 = ORIENTED_EDGE ( 'NONE', *, *, #84, .T. ) ;
#153 = AXIS2_PLACEMENT_3D ( 'NONE', #65, #43, #91 ) ;
#154 = CC_DESIGN_PERSON_AND_ORGANIZATION_ASSIGNMENT ( #23, #130, ( #115 ) ) ;
#155 = APPROVAL_STATUS ( 'not_yet_approved' ) ;
#156 = DATE_AND_TIME ( #47, #112 ) ;
#157 = CARTESIAN_POINT ( 'NONE',  ( 0.0000000000000000000, 0.0000000000000000000, 0.0000000000000000000 ) ) ;
#158 = APPROVAL_DATE_TIME ( #49, #123 ) ;
#159 = EDGE_CURVE ( 'NONE', #56, #41, #100, .T. ) ;
#160 = COORDINATED_UNIVERSAL_TIME_OFFSET ( 5, 0, .BEHIND. ) ;
#161 = APPROVAL_STATUS ( 'not_yet_approved' ) ;
#162 = ADVANCED_BREP_SHAPE_REPRESENTATION ( 'Web Model 68740_47688', ( #92, #55 ), #20 ) ;
#163 =( NAMED_UNIT ( * ) SI_UNIT ( $, .STERADIAN. ) SOLID_ANGLE_UNIT ( ) );
#164 = DIRECTION ( 'NONE',  ( 1.000000000000000000, 0.0000000000000000000, 0.0000000000000000000 ) ) ;
#165 = ORIENTED_EDGE ( 'NONE', *, *, #159, .F. ) ;
#166 = DIRECTION ( 'NONE',  ( 0.0000000000000000000, 0.0000000000000000000, 1.000000000000000000 ) ) ;
#167 = SECURITY_CLASSIFICATION ( '', '', #39 ) ;
#168 = PERSON ( 'UNSPECIFIED', 'UNSPECIFIED', 'UNSPECIFIED', ('UNSPECIFIED'), ('UNSPECIFIED'), ('UNSPECIFIED') ) ;
#169 = EDGE_CURVE ( 'NONE', #140, #75, #40, .T. ) ;
#170 = LOCAL_TIME ( 14, 17, 19.00000000000000000, #59 ) ;
#171 = CARTESIAN_POINT ( 'NONE',  ( 3.000000000000000000, 0.0000000000000000000, 25.00000000000000000 ) ) ;
#172 = CYLINDRICAL_SURFACE ( 'NONE', #153, 25.00000000000000000 ) ;
#173 = CC_DESIGN_PERSON_AND_ORGANIZATION_ASSIGNMENT ( #127, #26, ( #167 ) ) ;
#174 = APPLICATION_PROTOCOL_DEFINITION ( 'international standard', 'config_control_design', 1994, #87 ) ;
#175 = ORIENTED_EDGE ( 'NONE', *, *, #129, .F. ) ;
ENDSEC;
END-ISO-10303-21;
