ISO-10303-21;
HEADER;
FILE_DESCRIPTION (( 'STEP AP203' ),
    '1' );
FILE_NAME ('Web Model 17231_17232.step',
    '2021-04-08T14:02:20',
    ( '' ),
    ( '' ),
    'SwSTEP 2.0',
    'SolidWorks 2018',
    '' );
FILE_SCHEMA (( 'CONFIG_CONTROL_DESIGN' ));
ENDSEC;

DATA;
#1 = APPROVAL ( #50, 'UNSPECIFIED' ) ;
#2 = DIRECTION ( 'NONE',  ( -1.000000000000000000, 0.000000000000000000, 0.000000000000000000 ) ) ;
#3 =( NAMED_UNIT ( * ) SI_UNIT ( $, .STERADIAN. ) SOLID_ANGLE_UNIT ( ) );
#4 = CC_DESIGN_DATE_AND_TIME_ASSIGNMENT ( #162, #102, ( #28 ) ) ;
#5 = DIRECTION ( 'NONE',  ( 1.000000000000000000, 0.000000000000000000, -0.000000000000000000 ) ) ;
#6 = DATE_AND_TIME ( #41, #76 ) ;
#7 = DIRECTION ( 'NONE',  ( 1.000000000000000000, 0.000000000000000000, 0.000000000000000000 ) ) ;
#8 = APPROVAL_ROLE ( '' ) ;
#9 = APPROVAL_PERSON_ORGANIZATION ( #138, #83, #135 ) ;
#10 = APPLICATION_CONTEXT ( 'configuration controlled 3d designs of mechanical parts and assemblies' ) ;
#11 = EDGE_CURVE ( 'NONE', #30, #81, #147, .T. ) ;
#12 = ORIENTED_EDGE ( 'NONE', *, *, #11, .T. ) ;
#13 = COORDINATED_UNIVERSAL_TIME_OFFSET ( 5, 0, .BEHIND. ) ;
#14 = PRODUCT_RELATED_PRODUCT_CATEGORY ( 'detail', '', ( #114 ) ) ;
#15 = AXIS2_PLACEMENT_3D ( 'NONE', #89, #45, #48 ) ;
#16 = DIRECTION ( 'NONE',  ( 0.000000000000000000, 0.000000000000000000, 1.000000000000000000 ) ) ;
#17 = APPROVAL ( #78, 'UNSPECIFIED' ) ;
#18 = CLOSED_SHELL ( 'NONE', ( #79, #151, #149, #37 ) ) ;
#19 = PERSON_AND_ORGANIZATION ( #169, #131 ) ;
#20 = DIRECTION ( 'NONE',  ( -0.000000000000000000, -0.000000000000000000, -1.000000000000000000 ) ) ;
#21 = DIRECTION ( 'NONE',  ( -0.000000000000000000, -0.000000000000000000, -1.000000000000000000 ) ) ;
#22 = PERSON_AND_ORGANIZATION_ROLE ( 'creator' ) ;
#23 = AXIS2_PLACEMENT_3D ( 'NONE', #111, #31, #5 ) ;
#24 = CC_DESIGN_APPROVAL ( #17, ( #139 ) ) ;
#25 = FACE_OUTER_BOUND ( 'NONE', #153, .T. ) ;
#26 = CYLINDRICAL_SURFACE ( 'NONE', #173, 12.69999999999999929 ) ;
#27 = CALENDAR_DATE ( 2021, 8, 4 ) ;
#28 = SECURITY_CLASSIFICATION ( '', '', #101 ) ;
#29 = DIRECTION ( 'NONE',  ( 0.000000000000000000, 0.000000000000000000, 1.000000000000000000 ) ) ;
#30 = VERTEX_POINT ( 'NONE', #140 ) ;
#31 = DIRECTION ( 'NONE',  ( 0.000000000000000000, 0.000000000000000000, 1.000000000000000000 ) ) ;
#32 = EDGE_LOOP ( 'NONE', ( #141, #161, #175, #96 ) ) ;
#33 = CARTESIAN_POINT ( 'NONE',  ( -12.69999999999999929, 0.000000000000000000, 1.000000000000000000 ) ) ;
#34 = DIRECTION ( 'NONE',  ( -0.000000000000000000, -0.000000000000000000, -1.000000000000000000 ) ) ;
#35 = CIRCLE ( 'NONE', #36, 12.69999999999999929 ) ;
#36 = AXIS2_PLACEMENT_3D ( 'NONE', #127, #70, #44 ) ;
#37 = ADVANCED_FACE ( 'NONE', ( #67 ), #72, .F. ) ;
#38 = CALENDAR_DATE ( 2021, 8, 4 ) ;
#39 = VERTEX_POINT ( 'NONE', #126 ) ;
#40 = CC_DESIGN_PERSON_AND_ORGANIZATION_ASSIGNMENT ( #19, #51, ( #28 ) ) ;
#41 = CALENDAR_DATE ( 2021, 8, 4 ) ;
#42 = ORIENTED_EDGE ( 'NONE', *, *, #107, .F. ) ;
#43 = LOCAL_TIME ( 10, 2, 20.00000000000000000, #82 ) ;
#44 = DIRECTION ( 'NONE',  ( 1.000000000000000000, 0.000000000000000000, 0.000000000000000000 ) ) ;
#45 = DIRECTION ( 'NONE',  ( 0.000000000000000000, 0.000000000000000000, 1.000000000000000000 ) ) ;
#46 = CC_DESIGN_PERSON_AND_ORGANIZATION_ASSIGNMENT ( #160, #22, ( #139 ) ) ;
#47 = EDGE_LOOP ( 'NONE', ( #42, #86 ) ) ;
#48 = DIRECTION ( 'NONE',  ( 1.000000000000000000, 0.000000000000000000, 0.000000000000000000 ) ) ;
#49 = UNCERTAINTY_MEASURE_WITH_UNIT (LENGTH_MEASURE( 1.000000000000000082E-05 ), #85, 'distance_accuracy_value', 'NONE');
#50 = APPROVAL_STATUS ( 'not_yet_approved' ) ;
#51 = PERSON_AND_ORGANIZATION_ROLE ( 'classification_officer' ) ;
#52 = PERSON_AND_ORGANIZATION_ROLE ( 'design_owner' ) ;
#53 = CC_DESIGN_DATE_AND_TIME_ASSIGNMENT ( #84, #90, ( #139 ) ) ;
#54 = PERSON_AND_ORGANIZATION ( #169, #131 ) ;
#55 = APPROVAL_DATE_TIME ( #94, #1 ) ;
#56 = AXIS2_PLACEMENT_3D ( 'NONE', #60, #29, #157 ) ;
#57 = CC_DESIGN_PERSON_AND_ORGANIZATION_ASSIGNMENT ( #65, #99, ( #71 ) ) ;
#58 = DIRECTION ( 'NONE',  ( -0.000000000000000000, -0.000000000000000000, -1.000000000000000000 ) ) ;
#59 = PLANE ( 'NONE',  #23 ) ;
#60 = CARTESIAN_POINT ( 'NONE',  ( 0.000000000000000000, 0.000000000000000000, 0.000000000000000000 ) ) ;
#61 = ORIENTED_EDGE ( 'NONE', *, *, #62, .F. ) ;
#62 = EDGE_CURVE ( 'NONE', #30, #122, #35, .T. ) ;
#63 = APPROVAL_STATUS ( 'not_yet_approved' ) ;
#64 = LOCAL_TIME ( 10, 2, 20.00000000000000000, #174 ) ;
#65 = PERSON_AND_ORGANIZATION ( #169, #131 ) ;
#66 = CYLINDRICAL_SURFACE ( 'NONE', #125, 12.69999999999999929 ) ;
#67 = FACE_OUTER_BOUND ( 'NONE', #47, .T. ) ;
#68 =( NAMED_UNIT ( * ) PLANE_ANGLE_UNIT ( ) SI_UNIT ( $, .RADIAN. ) );
#69 = CIRCLE ( 'NONE', #15, 12.69999999999999929 ) ;
#70 = DIRECTION ( 'NONE',  ( 0.000000000000000000, 0.000000000000000000, 1.000000000000000000 ) ) ;
#71 = PRODUCT_DEFINITION_FORMATION_WITH_SPECIFIED_SOURCE ( 'ANY', '', #114, .NOT_KNOWN. ) ;
#72 = PLANE ( 'NONE',  #56 ) ;
#73 = CARTESIAN_POINT ( 'NONE',  ( 12.69999999999999929, 1.555301434917138433E-15, 0.000000000000000000 ) ) ;
#74 = COORDINATED_UNIVERSAL_TIME_OFFSET ( 5, 0, .BEHIND. ) ;
#75 = CIRCLE ( 'NONE', #134, 12.69999999999999929 ) ;
#76 = LOCAL_TIME ( 10, 2, 20.00000000000000000, #13 ) ;
#77 = EDGE_CURVE ( 'NONE', #122, #30, #69, .T. ) ;
#78 = APPROVAL_STATUS ( 'not_yet_approved' ) ;
#79 = ADVANCED_FACE ( 'NONE', ( #100 ), #26, .T. ) ;
#80 = ORIENTED_EDGE ( 'NONE', *, *, #77, .T. ) ;
#81 = VERTEX_POINT ( 'NONE', #73 ) ;
#82 = COORDINATED_UNIVERSAL_TIME_OFFSET ( 5, 0, .BEHIND. ) ;
#83 = APPROVAL ( #63, 'UNSPECIFIED' ) ;
#84 = DATE_AND_TIME ( #116, #87 ) ;
#85 =( LENGTH_UNIT ( ) NAMED_UNIT ( * ) SI_UNIT ( .MILLI., .METRE. ) );
#86 = ORIENTED_EDGE ( 'NONE', *, *, #91, .F. ) ;
#87 = LOCAL_TIME ( 10, 2, 20.00000000000000000, #118 ) ;
#88 = DIRECTION ( 'NONE',  ( 0.000000000000000000, 0.000000000000000000, 1.000000000000000000 ) ) ;
#89 = CARTESIAN_POINT ( 'NONE',  ( 0.000000000000000000, 0.000000000000000000, 1.000000000000000000 ) ) ;
#90 = DATE_TIME_ROLE ( 'creation_date' ) ;
#91 = EDGE_CURVE ( 'NONE', #81, #39, #105, .T. ) ;
#92 = MANIFOLD_SOLID_BREP ( 'Boss-Extrude1', #18 ) ;
#93 = EDGE_CURVE ( 'NONE', #122, #39, #172, .T. ) ;
#94 = DATE_AND_TIME ( #27, #64 ) ;
#95 = CARTESIAN_POINT ( 'NONE',  ( 0.000000000000000000, 0.000000000000000000, 0.000000000000000000 ) ) ;
#96 = ORIENTED_EDGE ( 'NONE', *, *, #107, .T. ) ;
#97 = DIRECTION ( 'NONE',  ( 0.000000000000000000, 0.000000000000000000, 1.000000000000000000 ) ) ;
#98 = CC_DESIGN_APPROVAL ( #83, ( #71 ) ) ;
#99 = PERSON_AND_ORGANIZATION_ROLE ( 'design_supplier' ) ;
#100 = FACE_OUTER_BOUND ( 'NONE', #132, .T. ) ;
#101 = SECURITY_CLASSIFICATION_LEVEL ( 'unclassified' ) ;
#102 = DATE_TIME_ROLE ( 'classification_date' ) ;
#103 = APPLICATION_PROTOCOL_DEFINITION ( 'international standard', 'config_control_design', 1994, #10 ) ;
#104 = FACE_OUTER_BOUND ( 'NONE', #32, .T. ) ;
#105 = CIRCLE ( 'NONE', #121, 12.69999999999999929 ) ;
#106 = VECTOR ( 'NONE', #21, 1000.000000000000000 ) ;
#107 = EDGE_CURVE ( 'NONE', #39, #81, #75, .T. ) ;
#108 = CC_DESIGN_PERSON_AND_ORGANIZATION_ASSIGNMENT ( #54, #119, ( #71 ) ) ;
#109 = PRODUCT_DEFINITION_SHAPE ( 'NONE', 'NONE',  #139 ) ;
#110 = DATE_AND_TIME ( #150, #43 ) ;
#111 = CARTESIAN_POINT ( 'NONE',  ( 0.000000000000000000, 0.000000000000000000, 1.000000000000000000 ) ) ;
#112 = DESIGN_CONTEXT ( 'detailed design', #136, 'design' ) ;
#113 = CARTESIAN_POINT ( 'NONE',  ( 0.000000000000000000, 0.000000000000000000, 0.000000000000000000 ) ) ;
#114 = PRODUCT ( 'Web Model 17231_17232', 'Web Model 17231_17232', '', ( #129 ) ) ;
#115 = ORIENTED_EDGE ( 'NONE', *, *, #62, .T. ) ;
#116 = CALENDAR_DATE ( 2021, 8, 4 ) ;
#117 = CC_DESIGN_SECURITY_CLASSIFICATION ( #28, ( #71 ) ) ;
#118 = COORDINATED_UNIVERSAL_TIME_OFFSET ( 5, 0, .BEHIND. ) ;
#119 = PERSON_AND_ORGANIZATION_ROLE ( 'creator' ) ;
#120 = APPROVAL_PERSON_ORGANIZATION ( #156, #17, #8 ) ;
#121 = AXIS2_PLACEMENT_3D ( 'NONE', #113, #88, #7 ) ;
#122 = VERTEX_POINT ( 'NONE', #33 ) ;
#123 = ORIENTED_EDGE ( 'NONE', *, *, #93, .F. ) ;
#124 = PERSON_AND_ORGANIZATION ( #169, #131 ) ;
#125 = AXIS2_PLACEMENT_3D ( 'NONE', #142, #34, #2 ) ;
#126 = CARTESIAN_POINT ( 'NONE',  ( -12.69999999999999929, 0.000000000000000000, 0.000000000000000000 ) ) ;
#127 = CARTESIAN_POINT ( 'NONE',  ( 0.000000000000000000, 0.000000000000000000, 1.000000000000000000 ) ) ;
#128 = DIRECTION ( 'NONE',  ( -1.000000000000000000, 0.000000000000000000, 0.000000000000000000 ) ) ;
#129 = MECHANICAL_CONTEXT ( 'NONE', #10, 'mechanical' ) ;
#130 = APPROVAL_PERSON_ORGANIZATION ( #124, #1, #146 ) ;
#131 = ORGANIZATION ( 'UNSPECIFIED', 'UNSPECIFIED', '' ) ;
#132 = EDGE_LOOP ( 'NONE', ( #61, #12, #159, #123 ) ) ;
#133 = APPLICATION_PROTOCOL_DEFINITION ( 'international standard', 'config_control_design', 1994, #136 ) ;
#134 = AXIS2_PLACEMENT_3D ( 'NONE', #144, #97, #158 ) ;
#135 = APPROVAL_ROLE ( '' ) ;
#136 = APPLICATION_CONTEXT ( 'configuration controlled 3d designs of mechanical parts and assemblies' ) ;
#137 = CC_DESIGN_APPROVAL ( #1, ( #28 ) ) ;
#138 = PERSON_AND_ORGANIZATION ( #169, #131 ) ;
#139 = PRODUCT_DEFINITION ( 'UNKNOWN', '', #71, #112 ) ;
#140 = CARTESIAN_POINT ( 'NONE',  ( 12.69999999999999929, 1.555301434917138433E-15, 1.000000000000000000 ) ) ;
#141 = ORIENTED_EDGE ( 'NONE', *, *, #11, .F. ) ;
#142 = CARTESIAN_POINT ( 'NONE',  ( 0.000000000000000000, 0.000000000000000000, 1.000000000000000000 ) ) ;
#143 = APPROVAL_DATE_TIME ( #6, #83 ) ;
#144 = CARTESIAN_POINT ( 'NONE',  ( 0.000000000000000000, 0.000000000000000000, 0.000000000000000000 ) ) ;
#145 = ADVANCED_BREP_SHAPE_REPRESENTATION ( 'Web Model 17231_17232', ( #92, #148 ), #154 ) ;
#146 = APPROVAL_ROLE ( '' ) ;
#147 = LINE ( 'NONE', #170, #106 ) ;
#148 = AXIS2_PLACEMENT_3D ( 'NONE', #95, #16, #171 ) ;
#149 = ADVANCED_FACE ( 'NONE', ( #25 ), #59, .T. ) ;
#150 = CALENDAR_DATE ( 2021, 8, 4 ) ;
#151 = ADVANCED_FACE ( 'NONE', ( #104 ), #66, .T. ) ;
#152 = CC_DESIGN_PERSON_AND_ORGANIZATION_ASSIGNMENT ( #164, #52, ( #114 ) ) ;
#153 = EDGE_LOOP ( 'NONE', ( #80, #115 ) ) ;
#154 =( GEOMETRIC_REPRESENTATION_CONTEXT ( 3 ) GLOBAL_UNCERTAINTY_ASSIGNED_CONTEXT ( ( #49 ) ) GLOBAL_UNIT_ASSIGNED_CONTEXT ( ( #85, #68, #3 ) ) REPRESENTATION_CONTEXT ( 'NONE', 'WORKASPACE' ) );
#155 = LOCAL_TIME ( 10, 2, 20.00000000000000000, #74 ) ;
#156 = PERSON_AND_ORGANIZATION ( #169, #131 ) ;
#157 = DIRECTION ( 'NONE',  ( 1.000000000000000000, 0.000000000000000000, -0.000000000000000000 ) ) ;
#158 = DIRECTION ( 'NONE',  ( 1.000000000000000000, 0.000000000000000000, 0.000000000000000000 ) ) ;
#159 = ORIENTED_EDGE ( 'NONE', *, *, #91, .T. ) ;
#160 = PERSON_AND_ORGANIZATION ( #169, #131 ) ;
#161 = ORIENTED_EDGE ( 'NONE', *, *, #77, .F. ) ;
#162 = DATE_AND_TIME ( #38, #155 ) ;
#163 = APPROVAL_DATE_TIME ( #110, #17 ) ;
#164 = PERSON_AND_ORGANIZATION ( #169, #131 ) ;
#165 = VECTOR ( 'NONE', #20, 1000.000000000000000 ) ;
#166 = SHAPE_DEFINITION_REPRESENTATION ( #109, #145 ) ;
#167 = CARTESIAN_POINT ( 'NONE',  ( -12.69999999999999929, 0.000000000000000000, 1.000000000000000000 ) ) ;
#168 = CARTESIAN_POINT ( 'NONE',  ( 0.000000000000000000, 0.000000000000000000, 1.000000000000000000 ) ) ;
#169 = PERSON ( 'UNSPECIFIED', 'UNSPECIFIED', 'UNSPECIFIED', ('UNSPECIFIED'), ('UNSPECIFIED'), ('UNSPECIFIED') ) ;
#170 = CARTESIAN_POINT ( 'NONE',  ( 12.69999999999999929, 1.555301434917138433E-15, 1.000000000000000000 ) ) ;
#171 = DIRECTION ( 'NONE',  ( 1.000000000000000000, 0.000000000000000000, 0.000000000000000000 ) ) ;
#172 = LINE ( 'NONE', #167, #165 ) ;
#173 = AXIS2_PLACEMENT_3D ( 'NONE', #168, #58, #128 ) ;
#174 = COORDINATED_UNIVERSAL_TIME_OFFSET ( 5, 0, .BEHIND. ) ;
#175 = ORIENTED_EDGE ( 'NONE', *, *, #93, .T. ) ;
ENDSEC;
END-ISO-10303-21;
