ISO-10303-21;
HEADER;
FILE_DESCRIPTION (( 'STEP AP203' ),
    '1' );
FILE_NAME ('Web Model 19837_19859.step',
    '2022-04-06T15:04:13',
    ( 'WC' ),
    ( 'Windows Central' ),
    'SwSTEP 2.0',
    'SolidWorks 2021',
    '' );
FILE_SCHEMA (( 'CONFIG_CONTROL_DESIGN' ));
ENDSEC;

DATA;
#1 = LOCAL_TIME ( 11, 4, 13.00000000000000000, #101 ) ;
#2 = DESIGN_CONTEXT ( 'detailed design', #83, 'design' ) ;
#3 = ORIENTED_EDGE ( 'NONE', *, *, #157, .T. ) ;
#4 = ADVANCED_FACE ( 'NONE', ( #5 ), #22, .T. ) ;
#5 = FACE_OUTER_BOUND ( 'NONE', #46, .T. ) ;
#6 = ORGANIZATION ( 'UNSPECIFIED', 'UNSPECIFIED', '' ) ;
#7 = ORIENTED_EDGE ( 'NONE', *, *, #37, .F. ) ;
#8 = CC_DESIGN_PERSON_AND_ORGANIZATION_ASSIGNMENT ( #167, #48, ( #81 ) ) ;
#9 = DATE_AND_TIME ( #62, #20 ) ;
#10 = APPROVAL_STATUS ( 'not_yet_approved' ) ;
#11 = APPROVAL_DATE_TIME ( #13, #165 ) ;
#12 = APPROVAL_DATE_TIME ( #170, #115 ) ;
#13 = DATE_AND_TIME ( #25, #29 ) ;
#14 =( NAMED_UNIT ( * ) PLANE_ANGLE_UNIT ( ) SI_UNIT ( $, .RADIAN. ) );
#15 = APPROVAL_PERSON_ORGANIZATION ( #91, #165, #77 ) ;
#16 = MECHANICAL_CONTEXT ( 'NONE', #156, 'mechanical' ) ;
#17 = DIRECTION ( 'NONE',  ( 1.000000000000000000, 0.000000000000000000, 0.000000000000000000 ) ) ;
#18 = ORIENTED_EDGE ( 'NONE', *, *, #157, .F. ) ;
#19 = DIRECTION ( 'NONE',  ( -1.000000000000000000, 0.000000000000000000, 0.000000000000000000 ) ) ;
#20 = LOCAL_TIME ( 11, 4, 13.00000000000000000, #90 ) ;
#21 = ORIENTED_EDGE ( 'NONE', *, *, #97, .T. ) ;
#22 = PLANE ( 'NONE',  #43 ) ;
#23 = PERSON_AND_ORGANIZATION ( #63, #6 ) ;
#24 = CC_DESIGN_PERSON_AND_ORGANIZATION_ASSIGNMENT ( #64, #123, ( #124 ) ) ;
#25 = CALENDAR_DATE ( 2022, 6, 4 ) ;
#26 = CARTESIAN_POINT ( 'NONE',  ( -12.50000000000000000, 0.000000000000000000, 4.000000000000000000 ) ) ;
#27 =( NAMED_UNIT ( * ) SI_UNIT ( $, .STERADIAN. ) SOLID_ANGLE_UNIT ( ) );
#28 = CC_DESIGN_APPROVAL ( #115, ( #81 ) ) ;
#29 = LOCAL_TIME ( 11, 4, 13.00000000000000000, #133 ) ;
#30 = DIRECTION ( 'NONE',  ( -1.000000000000000000, 0.000000000000000000, 0.000000000000000000 ) ) ;
#31 = CARTESIAN_POINT ( 'NONE',  ( 12.50000000000000000, 1.530808498934191521E-15, 4.000000000000000000 ) ) ;
#32 = ORIENTED_EDGE ( 'NONE', *, *, #111, .F. ) ;
#33 = LOCAL_TIME ( 11, 4, 13.00000000000000000, #102 ) ;
#34 = ORIENTED_EDGE ( 'NONE', *, *, #97, .F. ) ;
#35 = APPROVAL_STATUS ( 'not_yet_approved' ) ;
#36 = CARTESIAN_POINT ( 'NONE',  ( 12.50000000000000000, 1.530808498934191521E-15, 4.000000000000000000 ) ) ;
#37 = EDGE_CURVE ( 'NONE', #127, #60, #57, .T. ) ;
#38 = APPROVAL_ROLE ( '' ) ;
#39 = PERSON_AND_ORGANIZATION_ROLE ( 'creator' ) ;
#40 = APPROVAL_ROLE ( '' ) ;
#41 = DIRECTION ( 'NONE',  ( -0.000000000000000000, -0.000000000000000000, -1.000000000000000000 ) ) ;
#42 = CC_DESIGN_PERSON_AND_ORGANIZATION_ASSIGNMENT ( #23, #66, ( #149 ) ) ;
#43 = AXIS2_PLACEMENT_3D ( 'NONE', #87, #113, #71 ) ;
#44 = CYLINDRICAL_SURFACE ( 'NONE', #125, 12.50000000000000000 ) ;
#45 = AXIS2_PLACEMENT_3D ( 'NONE', #164, #148, #17 ) ;
#46 = EDGE_LOOP ( 'NONE', ( #139, #88 ) ) ;
#47 = SHAPE_DEFINITION_REPRESENTATION ( #95, #94 ) ;
#48 = PERSON_AND_ORGANIZATION_ROLE ( 'classification_officer' ) ;
#49 = DIRECTION ( 'NONE',  ( 0.000000000000000000, 0.000000000000000000, 1.000000000000000000 ) ) ;
#50 = DATE_AND_TIME ( #105, #168 ) ;
#51 = PERSON_AND_ORGANIZATION ( #63, #6 ) ;
#52 = PRODUCT_RELATED_PRODUCT_CATEGORY ( 'detail', '', ( #124 ) ) ;
#53 = DIRECTION ( 'NONE',  ( 1.000000000000000000, 0.000000000000000000, 0.000000000000000000 ) ) ;
#54 = CC_DESIGN_APPROVAL ( #165, ( #93 ) ) ;
#55 = CARTESIAN_POINT ( 'NONE',  ( 0.000000000000000000, 0.000000000000000000, 0.000000000000000000 ) ) ;
#56 = ADVANCED_FACE ( 'NONE', ( #153 ), #163, .T. ) ;
#57 = CIRCLE ( 'NONE', #158, 12.50000000000000000 ) ;
#58 =( GEOMETRIC_REPRESENTATION_CONTEXT ( 3 ) GLOBAL_UNCERTAINTY_ASSIGNED_CONTEXT ( ( #162 ) ) GLOBAL_UNIT_ASSIGNED_CONTEXT ( ( #67, #14, #27 ) ) REPRESENTATION_CONTEXT ( 'NONE', 'WORKASPACE' ) );
#59 = VERTEX_POINT ( 'NONE', #84 ) ;
#60 = VERTEX_POINT ( 'NONE', #166 ) ;
#61 = VERTEX_POINT ( 'NONE', #31 ) ;
#62 = CALENDAR_DATE ( 2022, 6, 4 ) ;
#63 = PERSON ( 'UNSPECIFIED', 'UNSPECIFIED', 'UNSPECIFIED', ('UNSPECIFIED'), ('UNSPECIFIED'), ('UNSPECIFIED') ) ;
#64 = PERSON_AND_ORGANIZATION ( #63, #6 ) ;
#65 = COORDINATED_UNIVERSAL_TIME_OFFSET ( 5, 0, .BEHIND. ) ;
#66 = PERSON_AND_ORGANIZATION_ROLE ( 'creator' ) ;
#67 =( LENGTH_UNIT ( ) NAMED_UNIT ( * ) SI_UNIT ( .MILLI., .METRE. ) );
#68 = ADVANCED_FACE ( 'NONE', ( #160 ), #44, .T. ) ;
#69 = AXIS2_PLACEMENT_3D ( 'NONE', #55, #49, #155 ) ;
#70 = CIRCLE ( 'NONE', #114, 12.50000000000000000 ) ;
#71 = DIRECTION ( 'NONE',  ( 1.000000000000000000, 0.000000000000000000, -0.000000000000000000 ) ) ;
#72 = ORIENTED_EDGE ( 'NONE', *, *, #132, .F. ) ;
#73 = CC_DESIGN_DATE_AND_TIME_ASSIGNMENT ( #50, #118, ( #93 ) ) ;
#74 = ORIENTED_EDGE ( 'NONE', *, *, #82, .F. ) ;
#75 = PERSON_AND_ORGANIZATION ( #63, #6 ) ;
#76 = PERSON_AND_ORGANIZATION_ROLE ( 'design_supplier' ) ;
#77 = APPROVAL_ROLE ( '' ) ;
#78 = DATE_AND_TIME ( #172, #1 ) ;
#79 = CARTESIAN_POINT ( 'NONE',  ( 0.000000000000000000, 0.000000000000000000, 0.000000000000000000 ) ) ;
#80 = PERSON_AND_ORGANIZATION ( #63, #6 ) ;
#81 = SECURITY_CLASSIFICATION ( '', '', #154 ) ;
#82 = EDGE_CURVE ( 'NONE', #61, #59, #106, .T. ) ;
#83 = APPLICATION_CONTEXT ( 'configuration controlled 3d designs of mechanical parts and assemblies' ) ;
#84 = CARTESIAN_POINT ( 'NONE',  ( -12.50000000000000000, 0.000000000000000000, 4.000000000000000000 ) ) ;
#85 = ADVANCED_FACE ( 'NONE', ( #107 ), #169, .F. ) ;
#86 = DIRECTION ( 'NONE',  ( -0.000000000000000000, -0.000000000000000000, -1.000000000000000000 ) ) ;
#87 = CARTESIAN_POINT ( 'NONE',  ( 0.000000000000000000, 0.000000000000000000, 4.000000000000000000 ) ) ;
#88 = ORIENTED_EDGE ( 'NONE', *, *, #82, .T. ) ;
#89 = APPLICATION_PROTOCOL_DEFINITION ( 'international standard', 'config_control_design', 1994, #156 ) ;
#90 = COORDINATED_UNIVERSAL_TIME_OFFSET ( 5, 0, .BEHIND. ) ;
#91 = PERSON_AND_ORGANIZATION ( #63, #6 ) ;
#92 = DIRECTION ( 'NONE',  ( 1.000000000000000000, 0.000000000000000000, 0.000000000000000000 ) ) ;
#93 = PRODUCT_DEFINITION ( 'UNKNOWN', '', #149, #2 ) ;
#94 = ADVANCED_BREP_SHAPE_REPRESENTATION ( 'Web Model 19837_19859', ( #110, #98 ), #58 ) ;
#95 = PRODUCT_DEFINITION_SHAPE ( 'NONE', 'NONE',  #93 ) ;
#96 = VECTOR ( 'NONE', #174, 1000.000000000000000 ) ;
#97 = EDGE_CURVE ( 'NONE', #61, #60, #121, .T. ) ;
#98 = AXIS2_PLACEMENT_3D ( 'NONE', #79, #137, #119 ) ;
#99 = EDGE_LOOP ( 'NONE', ( #7, #72 ) ) ;
#100 = ORIENTED_EDGE ( 'NONE', *, *, #37, .T. ) ;
#101 = COORDINATED_UNIVERSAL_TIME_OFFSET ( 5, 0, .BEHIND. ) ;
#102 = COORDINATED_UNIVERSAL_TIME_OFFSET ( 5, 0, .BEHIND. ) ;
#103 = CARTESIAN_POINT ( 'NONE',  ( -12.50000000000000000, 0.000000000000000000, 0.000000000000000000 ) ) ;
#104 = CALENDAR_DATE ( 2022, 6, 4 ) ;
#105 = CALENDAR_DATE ( 2022, 6, 4 ) ;
#106 = CIRCLE ( 'NONE', #45, 12.50000000000000000 ) ;
#107 = FACE_OUTER_BOUND ( 'NONE', #99, .T. ) ;
#108 = CC_DESIGN_DATE_AND_TIME_ASSIGNMENT ( #78, #120, ( #81 ) ) ;
#109 = CC_DESIGN_APPROVAL ( #136, ( #149 ) ) ;
#110 = MANIFOLD_SOLID_BREP ( 'Boss-Extrude1', #117 ) ;
#111 = EDGE_CURVE ( 'NONE', #59, #61, #70, .T. ) ;
#112 = DIRECTION ( 'NONE',  ( 1.000000000000000000, 0.000000000000000000, 0.000000000000000000 ) ) ;
#113 = DIRECTION ( 'NONE',  ( 0.000000000000000000, 0.000000000000000000, 1.000000000000000000 ) ) ;
#114 = AXIS2_PLACEMENT_3D ( 'NONE', #144, #135, #92 ) ;
#115 = APPROVAL ( #35, 'UNSPECIFIED' ) ;
#116 = DIRECTION ( 'NONE',  ( -0.000000000000000000, -0.000000000000000000, -1.000000000000000000 ) ) ;
#117 = CLOSED_SHELL ( 'NONE', ( #56, #68, #4, #85 ) ) ;
#118 = DATE_TIME_ROLE ( 'creation_date' ) ;
#119 = DIRECTION ( 'NONE',  ( 1.000000000000000000, 0.000000000000000000, 0.000000000000000000 ) ) ;
#120 = DATE_TIME_ROLE ( 'classification_date' ) ;
#121 = LINE ( 'NONE', #36, #173 ) ;
#122 = CC_DESIGN_SECURITY_CLASSIFICATION ( #81, ( #149 ) ) ;
#123 = PERSON_AND_ORGANIZATION_ROLE ( 'design_owner' ) ;
#124 = PRODUCT ( 'Web Model 19837_19859', 'Web Model 19837_19859', '', ( #16 ) ) ;
#125 = AXIS2_PLACEMENT_3D ( 'NONE', #151, #86, #19 ) ;
#126 = EDGE_LOOP ( 'NONE', ( #34, #32, #3, #100 ) ) ;
#127 = VERTEX_POINT ( 'NONE', #103 ) ;
#128 = EDGE_LOOP ( 'NONE', ( #74, #21, #142, #18 ) ) ;
#129 = CIRCLE ( 'NONE', #150, 12.50000000000000000 ) ;
#130 = DIRECTION ( 'NONE',  ( 0.000000000000000000, 0.000000000000000000, 1.000000000000000000 ) ) ;
#131 = APPROVAL_DATE_TIME ( #9, #136 ) ;
#132 = EDGE_CURVE ( 'NONE', #60, #127, #129, .T. ) ;
#133 = COORDINATED_UNIVERSAL_TIME_OFFSET ( 5, 0, .BEHIND. ) ;
#134 = PERSON_AND_ORGANIZATION ( #63, #6 ) ;
#135 = DIRECTION ( 'NONE',  ( 0.000000000000000000, 0.000000000000000000, 1.000000000000000000 ) ) ;
#136 = APPROVAL ( #143, 'UNSPECIFIED' ) ;
#137 = DIRECTION ( 'NONE',  ( 0.000000000000000000, 0.000000000000000000, 1.000000000000000000 ) ) ;
#138 = CC_DESIGN_PERSON_AND_ORGANIZATION_ASSIGNMENT ( #80, #76, ( #149 ) ) ;
#139 = ORIENTED_EDGE ( 'NONE', *, *, #111, .T. ) ;
#140 = CARTESIAN_POINT ( 'NONE',  ( 0.000000000000000000, 0.000000000000000000, 0.000000000000000000 ) ) ;
#141 = APPROVAL_PERSON_ORGANIZATION ( #134, #115, #38 ) ;
#142 = ORIENTED_EDGE ( 'NONE', *, *, #132, .T. ) ;
#143 = APPROVAL_STATUS ( 'not_yet_approved' ) ;
#144 = CARTESIAN_POINT ( 'NONE',  ( 0.000000000000000000, 0.000000000000000000, 4.000000000000000000 ) ) ;
#145 = CC_DESIGN_PERSON_AND_ORGANIZATION_ASSIGNMENT ( #51, #39, ( #93 ) ) ;
#146 = LINE ( 'NONE', #26, #96 ) ;
#147 = DIRECTION ( 'NONE',  ( 0.000000000000000000, 0.000000000000000000, 1.000000000000000000 ) ) ;
#148 = DIRECTION ( 'NONE',  ( 0.000000000000000000, 0.000000000000000000, 1.000000000000000000 ) ) ;
#149 = PRODUCT_DEFINITION_FORMATION_WITH_SPECIFIED_SOURCE ( 'ANY', '', #124, .NOT_KNOWN. ) ;
#150 = AXIS2_PLACEMENT_3D ( 'NONE', #171, #147, #53 ) ;
#151 = CARTESIAN_POINT ( 'NONE',  ( 0.000000000000000000, 0.000000000000000000, 4.000000000000000000 ) ) ;
#152 = CARTESIAN_POINT ( 'NONE',  ( 0.000000000000000000, 0.000000000000000000, 4.000000000000000000 ) ) ;
#153 = FACE_OUTER_BOUND ( 'NONE', #128, .T. ) ;
#154 = SECURITY_CLASSIFICATION_LEVEL ( 'unclassified' ) ;
#155 = DIRECTION ( 'NONE',  ( 1.000000000000000000, 0.000000000000000000, -0.000000000000000000 ) ) ;
#156 = APPLICATION_CONTEXT ( 'configuration controlled 3d designs of mechanical parts and assemblies' ) ;
#157 = EDGE_CURVE ( 'NONE', #59, #127, #146, .T. ) ;
#158 = AXIS2_PLACEMENT_3D ( 'NONE', #140, #130, #112 ) ;
#159 = AXIS2_PLACEMENT_3D ( 'NONE', #152, #116, #30 ) ;
#160 = FACE_OUTER_BOUND ( 'NONE', #126, .T. ) ;
#161 = APPROVAL_PERSON_ORGANIZATION ( #75, #136, #40 ) ;
#162 = UNCERTAINTY_MEASURE_WITH_UNIT (LENGTH_MEASURE( 1.000000000000000082E-05 ), #67, 'distance_accuracy_value', 'NONE');
#163 = CYLINDRICAL_SURFACE ( 'NONE', #159, 12.50000000000000000 ) ;
#164 = CARTESIAN_POINT ( 'NONE',  ( 0.000000000000000000, 0.000000000000000000, 4.000000000000000000 ) ) ;
#165 = APPROVAL ( #10, 'UNSPECIFIED' ) ;
#166 = CARTESIAN_POINT ( 'NONE',  ( 12.50000000000000000, 1.530808498934191521E-15, 0.000000000000000000 ) ) ;
#167 = PERSON_AND_ORGANIZATION ( #63, #6 ) ;
#168 = LOCAL_TIME ( 11, 4, 13.00000000000000000, #65 ) ;
#169 = PLANE ( 'NONE',  #69 ) ;
#170 = DATE_AND_TIME ( #104, #33 ) ;
#171 = CARTESIAN_POINT ( 'NONE',  ( 0.000000000000000000, 0.000000000000000000, 0.000000000000000000 ) ) ;
#172 = CALENDAR_DATE ( 2022, 6, 4 ) ;
#173 = VECTOR ( 'NONE', #41, 1000.000000000000000 ) ;
#174 = DIRECTION ( 'NONE',  ( -0.000000000000000000, -0.000000000000000000, -1.000000000000000000 ) ) ;
#175 = APPLICATION_PROTOCOL_DEFINITION ( 'international standard', 'config_control_design', 1994, #83 ) ;
ENDSEC;
END-ISO-10303-21;
