ISO-10303-21;
HEADER;
FILE_DESCRIPTION (( 'STEP AP203' ),
    '1' );
FILE_NAME ('Web Model 84456_47838.step',
    '2017-04-03T16:43:39',
    ( '' ),
    ( '' ),
    'SwSTEP 2.0',
    'SolidWorks 2016',
    '' );
FILE_SCHEMA (( 'CONFIG_CONTROL_DESIGN' ));
ENDSEC;

DATA;
#1 = DATE_AND_TIME ( #35, #72 ) ;
#2 = EDGE_CURVE ( 'NONE', #50, #171, #54, .T. ) ;
#3 = DIRECTION ( 'NONE',  ( 1.000000000000000000, 0.0000000000000000000, 0.0000000000000000000 ) ) ;
#4 = ADVANCED_FACE ( 'NONE', ( #26 ), #41, .T. ) ;
#5 = EDGE_CURVE ( 'NONE', #50, #20, #34, .T. ) ;
#6 = PERSON_AND_ORGANIZATION ( #142, #76 ) ;
#7 = EDGE_CURVE ( 'NONE', #171, #50, #141, .T. ) ;
#8 = CARTESIAN_POINT ( 'NONE',  ( 0.0000000000000000000, 0.0000000000000000000, 0.0000000000000000000 ) ) ;
#9 = EDGE_CURVE ( 'NONE', #20, #165, #10, .T. ) ;
#10 = CIRCLE ( 'NONE', #49, 15.00000000000000000 ) ;
#11 = CARTESIAN_POINT ( 'NONE',  ( 0.0000000000000000000, 0.0000000000000000000, 4.000000000000000000 ) ) ;
#12 = PRODUCT_DEFINITION ( 'UNKNOWN', '', #119, #61 ) ;
#13 = APPROVAL_ROLE ( '' ) ;
#14 = AXIS2_PLACEMENT_3D ( 'NONE', #51, #151, #175 ) ;
#15 = APPLICATION_PROTOCOL_DEFINITION ( 'international standard', 'config_control_design', 1994, #36 ) ;
#16 = EDGE_CURVE ( 'NONE', #165, #20, #95, .T. ) ;
#17 = APPROVAL_STATUS ( 'not_yet_approved' ) ;
#18 = ORIENTED_EDGE ( 'NONE', *, *, #5, .F. ) ;
#19 = LOCAL_TIME ( 12, 43, 39.00000000000000000, #46 ) ;
#20 = VERTEX_POINT ( 'NONE', #166 ) ;
#21 = AXIS2_PLACEMENT_3D ( 'NONE', #38, #156, #80 ) ;
#22 = EDGE_LOOP ( 'NONE', ( #159, #105 ) ) ;
#23 = CALENDAR_DATE ( 2017, 3, 4 ) ;
#24 = CARTESIAN_POINT ( 'NONE',  ( 15.00000000000000000, 1.836970198721029600E-015, 4.000000000000000000 ) ) ;
#25 = PERSON_AND_ORGANIZATION ( #142, #76 ) ;
#26 = FACE_OUTER_BOUND ( 'NONE', #115, .T. ) ;
#27 = AXIS2_PLACEMENT_3D ( 'NONE', #11, #146, #117 ) ;
#28 = APPLICATION_CONTEXT ( 'configuration controlled 3d designs of mechanical parts and assemblies' ) ;
#29 = COORDINATED_UNIVERSAL_TIME_OFFSET ( 5, 0, .BEHIND. ) ;
#30 = ORIENTED_EDGE ( 'NONE', *, *, #2, .T. ) ;
#31 = LOCAL_TIME ( 12, 43, 39.00000000000000000, #67 ) ;
#32 = CC_DESIGN_PERSON_AND_ORGANIZATION_ASSIGNMENT ( #167, #104, ( #119 ) ) ;
#33 = PERSON_AND_ORGANIZATION_ROLE ( 'creator' ) ;
#34 = LINE ( 'NONE', #24, #79 ) ;
#35 = CALENDAR_DATE ( 2017, 3, 4 ) ;
#36 = APPLICATION_CONTEXT ( 'configuration controlled 3d designs of mechanical parts and assemblies' ) ;
#37 = SECURITY_CLASSIFICATION ( '', '', #82 ) ;
#38 = CARTESIAN_POINT ( 'NONE',  ( 0.0000000000000000000, 0.0000000000000000000, 4.000000000000000000 ) ) ;
#39 = PERSON_AND_ORGANIZATION ( #142, #76 ) ;
#40 = DIRECTION ( 'NONE',  ( 1.000000000000000000, 0.0000000000000000000, -0.0000000000000000000 ) ) ;
#41 = CYLINDRICAL_SURFACE ( 'NONE', #42, 15.00000000000000000 ) ;
#42 = AXIS2_PLACEMENT_3D ( 'NONE', #144, #66, #58 ) ;
#43 = FACE_OUTER_BOUND ( 'NONE', #22, .T. ) ;
#44 = CC_DESIGN_PERSON_AND_ORGANIZATION_ASSIGNMENT ( #103, #33, ( #12 ) ) ;
#45 = MANIFOLD_SOLID_BREP ( 'Extrude1', #109 ) ;
#46 = COORDINATED_UNIVERSAL_TIME_OFFSET ( 5, 0, .BEHIND. ) ;
#47 = CC_DESIGN_DATE_AND_TIME_ASSIGNMENT ( #164, #152, ( #37 ) ) ;
#48 = CC_DESIGN_PERSON_AND_ORGANIZATION_ASSIGNMENT ( #39, #122, ( #155 ) ) ;
#49 = AXIS2_PLACEMENT_3D ( 'NONE', #111, #102, #3 ) ;
#50 = VERTEX_POINT ( 'NONE', #135 ) ;
#51 = CARTESIAN_POINT ( 'NONE',  ( 0.0000000000000000000, 0.0000000000000000000, 4.000000000000000000 ) ) ;
#52 = LOCAL_TIME ( 12, 43, 39.00000000000000000, #90 ) ;
#53 = ADVANCED_FACE ( 'NONE', ( #162 ), #153, .T. ) ;
#54 = CIRCLE ( 'NONE', #98, 15.00000000000000000 ) ;
#55 =( LENGTH_UNIT ( ) NAMED_UNIT ( * ) SI_UNIT ( .MILLI., .METRE. ) );
#56 = APPROVAL_DATE_TIME ( #92, #77 ) ;
#57 = DIRECTION ( 'NONE',  ( 0.0000000000000000000, 0.0000000000000000000, 1.000000000000000000 ) ) ;
#58 = DIRECTION ( 'NONE',  ( -1.000000000000000000, 0.0000000000000000000, 0.0000000000000000000 ) ) ;
#59 = AXIS2_PLACEMENT_3D ( 'NONE', #145, #57, #100 ) ;
#60 = FACE_OUTER_BOUND ( 'NONE', #158, .T. ) ;
#61 = DESIGN_CONTEXT ( 'detailed design', #36, 'design' ) ;
#62 = APPROVAL_PERSON_ORGANIZATION ( #97, #77, #116 ) ;
#63 = PERSON_AND_ORGANIZATION_ROLE ( 'classification_officer' ) ;
#64 =( GEOMETRIC_REPRESENTATION_CONTEXT ( 3 ) GLOBAL_UNCERTAINTY_ASSIGNED_CONTEXT ( ( #172 ) ) GLOBAL_UNIT_ASSIGNED_CONTEXT ( ( #55, #138, #89 ) ) REPRESENTATION_CONTEXT ( 'NONE', 'WORKASPACE' ) );
#65 = CARTESIAN_POINT ( 'NONE',  ( 0.0000000000000000000, 0.0000000000000000000, 0.0000000000000000000 ) ) ;
#66 = DIRECTION ( 'NONE',  ( -0.0000000000000000000, -0.0000000000000000000, -1.000000000000000000 ) ) ;
#67 = COORDINATED_UNIVERSAL_TIME_OFFSET ( 5, 0, .BEHIND. ) ;
#68 = MECHANICAL_CONTEXT ( 'NONE', #28, 'mechanical' ) ;
#69 = CARTESIAN_POINT ( 'NONE',  ( -15.00000000000000000, 0.0000000000000000000, 0.0000000000000000000 ) ) ;
#70 = ADVANCED_FACE ( 'NONE', ( #43 ), #133, .F. ) ;
#71 = ORIENTED_EDGE ( 'NONE', *, *, #9, .T. ) ;
#72 = LOCAL_TIME ( 12, 43, 39.00000000000000000, #108 ) ;
#73 = EDGE_CURVE ( 'NONE', #171, #165, #125, .T. ) ;
#74 = CC_DESIGN_APPROVAL ( #113, ( #37 ) ) ;
#75 = DIRECTION ( 'NONE',  ( -0.0000000000000000000, -0.0000000000000000000, -1.000000000000000000 ) ) ;
#76 = ORGANIZATION ( 'UNSPECIFIED', 'UNSPECIFIED', '' ) ;
#77 = APPROVAL ( #149, 'UNSPECIFIED' ) ;
#78 = ORIENTED_EDGE ( 'NONE', *, *, #73, .F. ) ;
#79 = VECTOR ( 'NONE', #75, 1000.000000000000000 ) ;
#80 = DIRECTION ( 'NONE',  ( -1.000000000000000000, 0.0000000000000000000, 0.0000000000000000000 ) ) ;
#81 = APPROVAL_DATE_TIME ( #123, #113 ) ;
#82 = SECURITY_CLASSIFICATION_LEVEL ( 'unclassified' ) ;
#83 = CC_DESIGN_APPROVAL ( #118, ( #12 ) ) ;
#84 = APPROVAL_PERSON_ORGANIZATION ( #128, #113, #94 ) ;
#85 = ORIENTED_EDGE ( 'NONE', *, *, #16, .T. ) ;
#86 = PLANE ( 'NONE',  #27 ) ;
#87 = PRODUCT_RELATED_PRODUCT_CATEGORY ( 'detail', '', ( #155 ) ) ;
#88 = ORIENTED_EDGE ( 'NONE', *, *, #5, .T. ) ;
#89 =( NAMED_UNIT ( * ) SI_UNIT ( $, .STERADIAN. ) SOLID_ANGLE_UNIT ( ) );
#90 = COORDINATED_UNIVERSAL_TIME_OFFSET ( 5, 0, .BEHIND. ) ;
#91 = ORIENTED_EDGE ( 'NONE', *, *, #2, .F. ) ;
#92 = DATE_AND_TIME ( #139, #169 ) ;
#93 = ADVANCED_FACE ( 'NONE', ( #60 ), #86, .T. ) ;
#94 = APPROVAL_ROLE ( '' ) ;
#95 = CIRCLE ( 'NONE', #126, 15.00000000000000000 ) ;
#96 = CARTESIAN_POINT ( 'NONE',  ( -15.00000000000000000, 0.0000000000000000000, 4.000000000000000000 ) ) ;
#97 = PERSON_AND_ORGANIZATION ( #142, #76 ) ;
#98 = AXIS2_PLACEMENT_3D ( 'NONE', #120, #170, #160 ) ;
#99 = DIRECTION ( 'NONE',  ( 0.0000000000000000000, 0.0000000000000000000, 1.000000000000000000 ) ) ;
#100 = DIRECTION ( 'NONE',  ( 1.000000000000000000, 0.0000000000000000000, 0.0000000000000000000 ) ) ;
#101 = DIRECTION ( 'NONE',  ( 1.000000000000000000, 0.0000000000000000000, 0.0000000000000000000 ) ) ;
#102 = DIRECTION ( 'NONE',  ( 0.0000000000000000000, 0.0000000000000000000, 1.000000000000000000 ) ) ;
#103 = PERSON_AND_ORGANIZATION ( #142, #76 ) ;
#104 = PERSON_AND_ORGANIZATION_ROLE ( 'design_supplier' ) ;
#105 = ORIENTED_EDGE ( 'NONE', *, *, #9, .F. ) ;
#106 = CC_DESIGN_PERSON_AND_ORGANIZATION_ASSIGNMENT ( #134, #63, ( #37 ) ) ;
#107 = ADVANCED_BREP_SHAPE_REPRESENTATION ( 'Web Model 84456_47838', ( #45, #59 ), #64 ) ;
#108 = COORDINATED_UNIVERSAL_TIME_OFFSET ( 5, 0, .BEHIND. ) ;
#109 = CLOSED_SHELL ( 'NONE', ( #53, #4, #93, #70 ) ) ;
#110 = DIRECTION ( 'NONE',  ( -0.0000000000000000000, -0.0000000000000000000, -1.000000000000000000 ) ) ;
#111 = CARTESIAN_POINT ( 'NONE',  ( 0.0000000000000000000, 0.0000000000000000000, 0.0000000000000000000 ) ) ;
#112 = SHAPE_DEFINITION_REPRESENTATION ( #140, #107 ) ;
#113 = APPROVAL ( #17, 'UNSPECIFIED' ) ;
#114 = DIRECTION ( 'NONE',  ( 0.0000000000000000000, 0.0000000000000000000, 1.000000000000000000 ) ) ;
#115 = EDGE_LOOP ( 'NONE', ( #18, #137, #130, #85 ) ) ;
#116 = APPROVAL_ROLE ( '' ) ;
#117 = DIRECTION ( 'NONE',  ( 1.000000000000000000, 0.0000000000000000000, -0.0000000000000000000 ) ) ;
#118 = APPROVAL ( #131, 'UNSPECIFIED' ) ;
#119 = PRODUCT_DEFINITION_FORMATION_WITH_SPECIFIED_SOURCE ( 'ANY', '', #155, .NOT_KNOWN. ) ;
#120 = CARTESIAN_POINT ( 'NONE',  ( 0.0000000000000000000, 0.0000000000000000000, 4.000000000000000000 ) ) ;
#121 = EDGE_LOOP ( 'NONE', ( #91, #88, #71, #78 ) ) ;
#122 = PERSON_AND_ORGANIZATION_ROLE ( 'design_owner' ) ;
#123 = DATE_AND_TIME ( #161, #19 ) ;
#124 = CC_DESIGN_DATE_AND_TIME_ASSIGNMENT ( #143, #132, ( #12 ) ) ;
#125 = LINE ( 'NONE', #96, #174 ) ;
#126 = AXIS2_PLACEMENT_3D ( 'NONE', #8, #114, #101 ) ;
#127 = PERSON_AND_ORGANIZATION_ROLE ( 'creator' ) ;
#128 = PERSON_AND_ORGANIZATION ( #142, #76 ) ;
#129 = CC_DESIGN_PERSON_AND_ORGANIZATION_ASSIGNMENT ( #25, #127, ( #119 ) ) ;
#130 = ORIENTED_EDGE ( 'NONE', *, *, #73, .T. ) ;
#131 = APPROVAL_STATUS ( 'not_yet_approved' ) ;
#132 = DATE_TIME_ROLE ( 'creation_date' ) ;
#133 = PLANE ( 'NONE',  #157 ) ;
#134 = PERSON_AND_ORGANIZATION ( #142, #76 ) ;
#135 = CARTESIAN_POINT ( 'NONE',  ( 15.00000000000000000, 1.836970198721029600E-015, 4.000000000000000000 ) ) ;
#136 = ORIENTED_EDGE ( 'NONE', *, *, #7, .T. ) ;
#137 = ORIENTED_EDGE ( 'NONE', *, *, #7, .F. ) ;
#138 =( NAMED_UNIT ( * ) PLANE_ANGLE_UNIT ( ) SI_UNIT ( $, .RADIAN. ) );
#139 = CALENDAR_DATE ( 2017, 3, 4 ) ;
#140 = PRODUCT_DEFINITION_SHAPE ( 'NONE', 'NONE',  #12 ) ;
#141 = CIRCLE ( 'NONE', #14, 15.00000000000000000 ) ;
#142 = PERSON ( 'UNSPECIFIED', 'UNSPECIFIED', 'UNSPECIFIED', ('UNSPECIFIED'), ('UNSPECIFIED'), ('UNSPECIFIED') ) ;
#143 = DATE_AND_TIME ( #173, #31 ) ;
#144 = CARTESIAN_POINT ( 'NONE',  ( 0.0000000000000000000, 0.0000000000000000000, 4.000000000000000000 ) ) ;
#145 = CARTESIAN_POINT ( 'NONE',  ( 0.0000000000000000000, 0.0000000000000000000, 0.0000000000000000000 ) ) ;
#146 = DIRECTION ( 'NONE',  ( 0.0000000000000000000, 0.0000000000000000000, 1.000000000000000000 ) ) ;
#147 = APPROVAL_DATE_TIME ( #1, #118 ) ;
#148 = CC_DESIGN_APPROVAL ( #77, ( #119 ) ) ;
#149 = APPROVAL_STATUS ( 'not_yet_approved' ) ;
#150 = APPROVAL_PERSON_ORGANIZATION ( #6, #118, #13 ) ;
#151 = DIRECTION ( 'NONE',  ( 0.0000000000000000000, 0.0000000000000000000, 1.000000000000000000 ) ) ;
#152 = DATE_TIME_ROLE ( 'classification_date' ) ;
#153 = CYLINDRICAL_SURFACE ( 'NONE', #21, 15.00000000000000000 ) ;
#154 = APPLICATION_PROTOCOL_DEFINITION ( 'international standard', 'config_control_design', 1994, #28 ) ;
#155 = PRODUCT ( 'Web Model 84456_47838', 'Web Model 84456_47838', '', ( #68 ) ) ;
#156 = DIRECTION ( 'NONE',  ( -0.0000000000000000000, -0.0000000000000000000, -1.000000000000000000 ) ) ;
#157 = AXIS2_PLACEMENT_3D ( 'NONE', #65, #99, #40 ) ;
#158 = EDGE_LOOP ( 'NONE', ( #136, #30 ) ) ;
#159 = ORIENTED_EDGE ( 'NONE', *, *, #16, .F. ) ;
#160 = DIRECTION ( 'NONE',  ( 1.000000000000000000, 0.0000000000000000000, 0.0000000000000000000 ) ) ;
#161 = CALENDAR_DATE ( 2017, 3, 4 ) ;
#162 = FACE_OUTER_BOUND ( 'NONE', #121, .T. ) ;
#163 = CARTESIAN_POINT ( 'NONE',  ( -15.00000000000000000, 0.0000000000000000000, 4.000000000000000000 ) ) ;
#164 = DATE_AND_TIME ( #23, #52 ) ;
#165 = VERTEX_POINT ( 'NONE', #69 ) ;
#166 = CARTESIAN_POINT ( 'NONE',  ( 15.00000000000000000, 1.836970198721029600E-015, 0.0000000000000000000 ) ) ;
#167 = PERSON_AND_ORGANIZATION ( #142, #76 ) ;
#168 = CC_DESIGN_SECURITY_CLASSIFICATION ( #37, ( #119 ) ) ;
#169 = LOCAL_TIME ( 12, 43, 39.00000000000000000, #29 ) ;
#170 = DIRECTION ( 'NONE',  ( 0.0000000000000000000, 0.0000000000000000000, 1.000000000000000000 ) ) ;
#171 = VERTEX_POINT ( 'NONE', #163 ) ;
#172 = UNCERTAINTY_MEASURE_WITH_UNIT (LENGTH_MEASURE( 1.000000000000000100E-005 ), #55, 'distance_accuracy_value', 'NONE');
#173 = CALENDAR_DATE ( 2017, 3, 4 ) ;
#174 = VECTOR ( 'NONE', #110, 1000.000000000000000 ) ;
#175 = DIRECTION ( 'NONE',  ( 1.000000000000000000, 0.0000000000000000000, 0.0000000000000000000 ) ) ;
ENDSEC;
END-ISO-10303-21;
