ISO-10303-21;
HEADER;
FILE_DESCRIPTION (( 'STEP AP203' ),
    '1' );
FILE_NAME ('Web Model 47681_14825.step',
    '2020-10-07T17:21:54',
    ( '' ),
    ( '' ),
    'SwSTEP 2.0',
    'SolidWorks 2018',
    '' );
FILE_SCHEMA (( 'CONFIG_CONTROL_DESIGN' ));
ENDSEC;

DATA;
#1 = PERSON_AND_ORGANIZATION ( #80, #43 ) ;
#2 = COORDINATED_UNIVERSAL_TIME_OFFSET ( 5, 0, .BEHIND. ) ;
#3 = DIRECTION ( 'NONE',  ( 0.0000000000000000000, 0.0000000000000000000, 1.000000000000000000 ) ) ;
#4 = ADVANCED_FACE ( 'NONE', ( #132 ), #79, .T. ) ;
#5 = VERTEX_POINT ( 'NONE', #107 ) ;
#6 = AXIS2_PLACEMENT_3D ( 'NONE', #68, #41, #16 ) ;
#7 = CALENDAR_DATE ( 2020, 7, 10 ) ;
#8 = LOCAL_TIME ( 13, 21, 54.00000000000000000, #42 ) ;
#9 = EDGE_CURVE ( 'NONE', #5, #133, #61, .T. ) ;
#10 = APPROVAL_ROLE ( '' ) ;
#11 = DIRECTION ( 'NONE',  ( 0.0000000000000000000, 0.0000000000000000000, 1.000000000000000000 ) ) ;
#12 =( NAMED_UNIT ( * ) PLANE_ANGLE_UNIT ( ) SI_UNIT ( $, .RADIAN. ) );
#13 = CALENDAR_DATE ( 2020, 7, 10 ) ;
#14 = ORIENTED_EDGE ( 'NONE', *, *, #173, .T. ) ;
#15 = PERSON_AND_ORGANIZATION_ROLE ( 'design_supplier' ) ;
#16 = DIRECTION ( 'NONE',  ( -1.000000000000000000, 0.0000000000000000000, 0.0000000000000000000 ) ) ;
#17 = AXIS2_PLACEMENT_3D ( 'NONE', #126, #46, #155 ) ;
#18 = APPROVAL_PERSON_ORGANIZATION ( #52, #120, #102 ) ;
#19 = ORIENTED_EDGE ( 'NONE', *, *, #147, .F. ) ;
#20 = ORIENTED_EDGE ( 'NONE', *, *, #29, .T. ) ;
#21 = CALENDAR_DATE ( 2020, 7, 10 ) ;
#22 = FACE_OUTER_BOUND ( 'NONE', #24, .T. ) ;
#23 =( LENGTH_UNIT ( ) NAMED_UNIT ( * ) SI_UNIT ( .MILLI., .METRE. ) );
#24 = EDGE_LOOP ( 'NONE', ( #160, #14 ) ) ;
#25 = SECURITY_CLASSIFICATION_LEVEL ( 'unclassified' ) ;
#26 = CC_DESIGN_PERSON_AND_ORGANIZATION_ASSIGNMENT ( #168, #159, ( #81 ) ) ;
#27 = ORIENTED_EDGE ( 'NONE', *, *, #29, .F. ) ;
#28 = CARTESIAN_POINT ( 'NONE',  ( 5.000000000000000888, 6.123233995736767268E-16, -0.7500000000000000000 ) ) ;
#29 = EDGE_CURVE ( 'NONE', #112, #51, #127, .T. ) ;
#30 = CARTESIAN_POINT ( 'NONE',  ( 0.0000000000000000000, 0.0000000000000000000, -0.7500000000000000000 ) ) ;
#31 = UNCERTAINTY_MEASURE_WITH_UNIT (LENGTH_MEASURE( 1.000000000000000082E-05 ), #23, 'distance_accuracy_value', 'NONE');
#32 = AXIS2_PLACEMENT_3D ( 'NONE', #87, #128, #110 ) ;
#33 = DATE_AND_TIME ( #13, #131 ) ;
#34 = CARTESIAN_POINT ( 'NONE',  ( 5.000000000000000888, 6.123233995736767268E-16, 0.7500000000000000000 ) ) ;
#35 =( NAMED_UNIT ( * ) SI_UNIT ( $, .STERADIAN. ) SOLID_ANGLE_UNIT ( ) );
#36 = DIRECTION ( 'NONE',  ( 1.000000000000000000, 0.0000000000000000000, -0.0000000000000000000 ) ) ;
#37 = DIRECTION ( 'NONE',  ( 0.0000000000000000000, 0.0000000000000000000, 1.000000000000000000 ) ) ;
#38 = PERSON_AND_ORGANIZATION_ROLE ( 'creator' ) ;
#39 = AXIS2_PLACEMENT_3D ( 'NONE', #114, #73, #36 ) ;
#40 = ORIENTED_EDGE ( 'NONE', *, *, #139, .T. ) ;
#41 = DIRECTION ( 'NONE',  ( -0.0000000000000000000, -0.0000000000000000000, -1.000000000000000000 ) ) ;
#42 = COORDINATED_UNIVERSAL_TIME_OFFSET ( 5, 0, .BEHIND. ) ;
#43 = ORGANIZATION ( 'UNSPECIFIED', 'UNSPECIFIED', '' ) ;
#44 = PRODUCT ( 'Web Model 47681_14825', 'Web Model 47681_14825', '', ( #172 ) ) ;
#45 = DIRECTION ( 'NONE',  ( -1.000000000000000000, 0.0000000000000000000, 0.0000000000000000000 ) ) ;
#46 = DIRECTION ( 'NONE',  ( 0.0000000000000000000, 0.0000000000000000000, 1.000000000000000000 ) ) ;
#47 = APPLICATION_PROTOCOL_DEFINITION ( 'international standard', 'config_control_design', 1994, #86 ) ;
#48 = AXIS2_PLACEMENT_3D ( 'NONE', #62, #49, #45 ) ;
#49 = DIRECTION ( 'NONE',  ( -0.0000000000000000000, -0.0000000000000000000, -1.000000000000000000 ) ) ;
#50 = PERSON_AND_ORGANIZATION_ROLE ( 'creator' ) ;
#51 = VERTEX_POINT ( 'NONE', #28 ) ;
#52 = PERSON_AND_ORGANIZATION ( #80, #43 ) ;
#53 = EDGE_LOOP ( 'NONE', ( #69, #105, #92, #63 ) ) ;
#54 = COORDINATED_UNIVERSAL_TIME_OFFSET ( 5, 0, .BEHIND. ) ;
#55 = PRODUCT_DEFINITION ( 'UNKNOWN', '', #124, #141 ) ;
#56 = ADVANCED_BREP_SHAPE_REPRESENTATION ( 'Web Model 47681_14825', ( #137, #32 ), #151 ) ;
#57 = EDGE_LOOP ( 'NONE', ( #27, #19 ) ) ;
#58 = ADVANCED_FACE ( 'NONE', ( #111 ), #148, .F. ) ;
#59 = CC_DESIGN_APPROVAL ( #94, ( #124 ) ) ;
#60 = COORDINATED_UNIVERSAL_TIME_OFFSET ( 5, 0, .BEHIND. ) ;
#61 = CIRCLE ( 'NONE', #70, 5.000000000000000888 ) ;
#62 = CARTESIAN_POINT ( 'NONE',  ( 0.0000000000000000000, 0.0000000000000000000, 0.7500000000000000000 ) ) ;
#63 = ORIENTED_EDGE ( 'NONE', *, *, #139, .F. ) ;
#64 = PERSON_AND_ORGANIZATION ( #80, #43 ) ;
#65 = APPROVAL_STATUS ( 'not_yet_approved' ) ;
#66 = CC_DESIGN_DATE_AND_TIME_ASSIGNMENT ( #116, #143, ( #55 ) ) ;
#67 = PERSON_AND_ORGANIZATION ( #80, #43 ) ;
#68 = CARTESIAN_POINT ( 'NONE',  ( 0.0000000000000000000, 0.0000000000000000000, 0.7500000000000000000 ) ) ;
#69 = ORIENTED_EDGE ( 'NONE', *, *, #173, .F. ) ;
#70 = AXIS2_PLACEMENT_3D ( 'NONE', #71, #167, #95 ) ;
#71 = CARTESIAN_POINT ( 'NONE',  ( 0.0000000000000000000, 0.0000000000000000000, 0.7500000000000000000 ) ) ;
#72 = ADVANCED_FACE ( 'NONE', ( #162 ), #138, .T. ) ;
#73 = DIRECTION ( 'NONE',  ( 0.0000000000000000000, 0.0000000000000000000, 1.000000000000000000 ) ) ;
#74 = PERSON_AND_ORGANIZATION ( #80, #43 ) ;
#75 = CIRCLE ( 'NONE', #89, 5.000000000000000888 ) ;
#76 = CARTESIAN_POINT ( 'NONE',  ( 0.0000000000000000000, 0.0000000000000000000, 0.7500000000000000000 ) ) ;
#77 = APPROVAL_DATE_TIME ( #33, #84 ) ;
#78 = CC_DESIGN_PERSON_AND_ORGANIZATION_ASSIGNMENT ( #67, #156, ( #44 ) ) ;
#79 = CYLINDRICAL_SURFACE ( 'NONE', #6, 5.000000000000000888 ) ;
#80 = PERSON ( 'UNSPECIFIED', 'UNSPECIFIED', 'UNSPECIFIED', ('UNSPECIFIED'), ('UNSPECIFIED'), ('UNSPECIFIED') ) ;
#81 = SECURITY_CLASSIFICATION ( '', '', #25 ) ;
#82 = CC_DESIGN_APPROVAL ( #84, ( #55 ) ) ;
#83 = APPROVAL_DATE_TIME ( #158, #120 ) ;
#84 = APPROVAL ( #85, 'UNSPECIFIED' ) ;
#85 = APPROVAL_STATUS ( 'not_yet_approved' ) ;
#86 = APPLICATION_CONTEXT ( 'configuration controlled 3d designs of mechanical parts and assemblies' ) ;
#87 = CARTESIAN_POINT ( 'NONE',  ( 0.0000000000000000000, 0.0000000000000000000, 0.0000000000000000000 ) ) ;
#88 = AXIS2_PLACEMENT_3D ( 'NONE', #30, #3, #119 ) ;
#89 = AXIS2_PLACEMENT_3D ( 'NONE', #76, #11, #174 ) ;
#90 = DATE_AND_TIME ( #129, #93 ) ;
#91 = LOCAL_TIME ( 13, 21, 54.00000000000000000, #134 ) ;
#92 = ORIENTED_EDGE ( 'NONE', *, *, #147, .T. ) ;
#93 = LOCAL_TIME ( 13, 21, 54.00000000000000000, #54 ) ;
#94 = APPROVAL ( #130, 'UNSPECIFIED' ) ;
#95 = DIRECTION ( 'NONE',  ( 1.000000000000000000, 0.0000000000000000000, 0.0000000000000000000 ) ) ;
#96 = CC_DESIGN_SECURITY_CLASSIFICATION ( #81, ( #124 ) ) ;
#97 = CIRCLE ( 'NONE', #17, 5.000000000000000888 ) ;
#98 = DIRECTION ( 'NONE',  ( -0.0000000000000000000, -0.0000000000000000000, -1.000000000000000000 ) ) ;
#99 = APPROVAL_PERSON_ORGANIZATION ( #74, #84, #10 ) ;
#100 = PLANE ( 'NONE',  #39 ) ;
#101 = CC_DESIGN_PERSON_AND_ORGANIZATION_ASSIGNMENT ( #115, #38, ( #55 ) ) ;
#102 = APPROVAL_ROLE ( '' ) ;
#103 = APPROVAL_ROLE ( '' ) ;
#104 = VECTOR ( 'NONE', #98, 1000.000000000000000 ) ;
#105 = ORIENTED_EDGE ( 'NONE', *, *, #157, .T. ) ;
#106 = PERSON_AND_ORGANIZATION ( #80, #43 ) ;
#107 = CARTESIAN_POINT ( 'NONE',  ( -5.000000000000000888, 0.0000000000000000000, 0.7500000000000000000 ) ) ;
#108 = PRODUCT_RELATED_PRODUCT_CATEGORY ( 'detail', '', ( #44 ) ) ;
#109 = APPLICATION_CONTEXT ( 'configuration controlled 3d designs of mechanical parts and assemblies' ) ;
#110 = DIRECTION ( 'NONE',  ( 1.000000000000000000, 0.0000000000000000000, 0.0000000000000000000 ) ) ;
#111 = FACE_OUTER_BOUND ( 'NONE', #57, .T. ) ;
#112 = VERTEX_POINT ( 'NONE', #125 ) ;
#113 = CC_DESIGN_DATE_AND_TIME_ASSIGNMENT ( #90, #175, ( #81 ) ) ;
#114 = CARTESIAN_POINT ( 'NONE',  ( 0.0000000000000000000, 0.0000000000000000000, 0.7500000000000000000 ) ) ;
#115 = PERSON_AND_ORGANIZATION ( #80, #43 ) ;
#116 = DATE_AND_TIME ( #144, #8 ) ;
#117 = LINE ( 'NONE', #171, #104 ) ;
#118 = CC_DESIGN_PERSON_AND_ORGANIZATION_ASSIGNMENT ( #106, #15, ( #124 ) ) ;
#119 = DIRECTION ( 'NONE',  ( 1.000000000000000000, 0.0000000000000000000, 0.0000000000000000000 ) ) ;
#120 = APPROVAL ( #65, 'UNSPECIFIED' ) ;
#121 = APPROVAL_PERSON_ORGANIZATION ( #1, #94, #103 ) ;
#122 = PRODUCT_DEFINITION_SHAPE ( 'NONE', 'NONE',  #55 ) ;
#123 = LOCAL_TIME ( 13, 21, 54.00000000000000000, #60 ) ;
#124 = PRODUCT_DEFINITION_FORMATION_WITH_SPECIFIED_SOURCE ( 'ANY', '', #44, .NOT_KNOWN. ) ;
#125 = CARTESIAN_POINT ( 'NONE',  ( -5.000000000000000888, 0.0000000000000000000, -0.7500000000000000000 ) ) ;
#126 = CARTESIAN_POINT ( 'NONE',  ( 0.0000000000000000000, 0.0000000000000000000, -0.7500000000000000000 ) ) ;
#127 = CIRCLE ( 'NONE', #88, 5.000000000000000888 ) ;
#128 = DIRECTION ( 'NONE',  ( 0.0000000000000000000, 0.0000000000000000000, 1.000000000000000000 ) ) ;
#129 = CALENDAR_DATE ( 2020, 7, 10 ) ;
#130 = APPROVAL_STATUS ( 'not_yet_approved' ) ;
#131 = LOCAL_TIME ( 13, 21, 54.00000000000000000, #2 ) ;
#132 = FACE_OUTER_BOUND ( 'NONE', #136, .T. ) ;
#133 = VERTEX_POINT ( 'NONE', #34 ) ;
#134 = COORDINATED_UNIVERSAL_TIME_OFFSET ( 5, 0, .BEHIND. ) ;
#135 = CARTESIAN_POINT ( 'NONE',  ( 0.0000000000000000000, 0.0000000000000000000, -0.7500000000000000000 ) ) ;
#136 = EDGE_LOOP ( 'NONE', ( #146, #163, #40, #20 ) ) ;
#137 = MANIFOLD_SOLID_BREP ( 'Boss-Extrude1', #169 ) ;
#138 = CYLINDRICAL_SURFACE ( 'NONE', #48, 5.000000000000000888 ) ;
#139 = EDGE_CURVE ( 'NONE', #5, #112, #117, .T. ) ;
#140 = DIRECTION ( 'NONE',  ( 1.000000000000000000, 0.0000000000000000000, -0.0000000000000000000 ) ) ;
#141 = DESIGN_CONTEXT ( 'detailed design', #109, 'design' ) ;
#142 = CARTESIAN_POINT ( 'NONE',  ( 5.000000000000000888, 6.123233995736767268E-16, 0.7500000000000000000 ) ) ;
#143 = DATE_TIME_ROLE ( 'creation_date' ) ;
#144 = CALENDAR_DATE ( 2020, 7, 10 ) ;
#145 = VECTOR ( 'NONE', #154, 1000.000000000000000 ) ;
#146 = ORIENTED_EDGE ( 'NONE', *, *, #157, .F. ) ;
#147 = EDGE_CURVE ( 'NONE', #51, #112, #97, .T. ) ;
#148 = PLANE ( 'NONE',  #164 ) ;
#149 = CC_DESIGN_PERSON_AND_ORGANIZATION_ASSIGNMENT ( #64, #50, ( #124 ) ) ;
#150 = DATE_AND_TIME ( #7, #91 ) ;
#151 =( GEOMETRIC_REPRESENTATION_CONTEXT ( 3 ) GLOBAL_UNCERTAINTY_ASSIGNED_CONTEXT ( ( #31 ) ) GLOBAL_UNIT_ASSIGNED_CONTEXT ( ( #23, #12, #35 ) ) REPRESENTATION_CONTEXT ( 'NONE', 'WORKASPACE' ) );
#152 = ADVANCED_FACE ( 'NONE', ( #22 ), #100, .T. ) ;
#153 = CC_DESIGN_APPROVAL ( #120, ( #81 ) ) ;
#154 = DIRECTION ( 'NONE',  ( -0.0000000000000000000, -0.0000000000000000000, -1.000000000000000000 ) ) ;
#155 = DIRECTION ( 'NONE',  ( 1.000000000000000000, 0.0000000000000000000, 0.0000000000000000000 ) ) ;
#156 = PERSON_AND_ORGANIZATION_ROLE ( 'design_owner' ) ;
#157 = EDGE_CURVE ( 'NONE', #133, #51, #165, .T. ) ;
#158 = DATE_AND_TIME ( #21, #123 ) ;
#159 = PERSON_AND_ORGANIZATION_ROLE ( 'classification_officer' ) ;
#160 = ORIENTED_EDGE ( 'NONE', *, *, #9, .T. ) ;
#161 = APPROVAL_DATE_TIME ( #150, #94 ) ;
#162 = FACE_OUTER_BOUND ( 'NONE', #53, .T. ) ;
#163 = ORIENTED_EDGE ( 'NONE', *, *, #9, .F. ) ;
#164 = AXIS2_PLACEMENT_3D ( 'NONE', #135, #37, #140 ) ;
#165 = LINE ( 'NONE', #142, #145 ) ;
#166 = SHAPE_DEFINITION_REPRESENTATION ( #122, #56 ) ;
#167 = DIRECTION ( 'NONE',  ( 0.0000000000000000000, 0.0000000000000000000, 1.000000000000000000 ) ) ;
#168 = PERSON_AND_ORGANIZATION ( #80, #43 ) ;
#169 = CLOSED_SHELL ( 'NONE', ( #72, #4, #152, #58 ) ) ;
#170 = APPLICATION_PROTOCOL_DEFINITION ( 'international standard', 'config_control_design', 1994, #109 ) ;
#171 = CARTESIAN_POINT ( 'NONE',  ( -5.000000000000000888, 0.0000000000000000000, 0.7500000000000000000 ) ) ;
#172 = MECHANICAL_CONTEXT ( 'NONE', #86, 'mechanical' ) ;
#173 = EDGE_CURVE ( 'NONE', #133, #5, #75, .T. ) ;
#174 = DIRECTION ( 'NONE',  ( 1.000000000000000000, 0.0000000000000000000, 0.0000000000000000000 ) ) ;
#175 = DATE_TIME_ROLE ( 'classification_date' ) ;
ENDSEC;
END-ISO-10303-21;
