ISO-10303-21;
HEADER;
FILE_DESCRIPTION (( 'STEP AP203' ),
    '1' );
FILE_NAME ('Web Model 45660.STEP',
    '2017-01-31T15:18:32',
    ( '' ),
    ( '' ),
    'SwSTEP 2.0',
    'SolidWorks 2016',
    '' );
FILE_SCHEMA (( 'CONFIG_CONTROL_DESIGN' ));
ENDSEC;

DATA;
#1 = CALENDAR_DATE ( 2017, 31, 1 ) ;
#2 = PRODUCT_RELATED_PRODUCT_CATEGORY ( 'detail', '', ( #141 ) ) ;
#3 = APPROVAL_DATE_TIME ( #107, #90 ) ;
#4 = VERTEX_POINT ( 'NONE', #120 ) ;
#5 = ORIENTED_EDGE ( 'NONE', *, *, #128, .F. ) ;
#6 = DIRECTION ( 'NONE',  ( 0.0000000000000000000, 0.0000000000000000000, 1.000000000000000000 ) ) ;
#7 = DIRECTION ( 'NONE',  ( 0.0000000000000000000, 0.0000000000000000000, 1.000000000000000000 ) ) ;
#8 = PERSON_AND_ORGANIZATION_ROLE ( 'design_owner' ) ;
#9 = APPLICATION_PROTOCOL_DEFINITION ( 'international standard', 'config_control_design', 1994, #24 ) ;
#10 = CC_DESIGN_PERSON_AND_ORGANIZATION_ASSIGNMENT ( #93, #87, ( #79 ) ) ;
#11 = AXIS2_PLACEMENT_3D ( 'NONE', #145, #51, #143 ) ;
#12 = VECTOR ( 'NONE', #84, 1000.000000000000000 ) ;
#13 = ADVANCED_FACE ( 'NONE', ( #127 ), #66, .F. ) ;
#14 = DATE_AND_TIME ( #165, #29 ) ;
#15 = LOCAL_TIME ( 10, 18, 32.00000000000000000, #54 ) ;
#16 = ORIENTED_EDGE ( 'NONE', *, *, #46, .F. ) ;
#17 = CALENDAR_DATE ( 2017, 31, 1 ) ;
#18 = CARTESIAN_POINT ( 'NONE',  ( 0.0000000000000000000, 0.0000000000000000000, 0.0000000000000000000 ) ) ;
#19 = DIRECTION ( 'NONE',  ( 0.0000000000000000000, 0.0000000000000000000, 1.000000000000000000 ) ) ;
#20 = CARTESIAN_POINT ( 'NONE',  ( 10.00000000000000000, 0.0000000000000000000, -3.000000000000000000 ) ) ;
#21 = APPLICATION_CONTEXT ( 'configuration controlled 3d designs of mechanical parts and assemblies' ) ;
#22 = MECHANICAL_CONTEXT ( 'NONE', #21, 'mechanical' ) ;
#23 = AXIS2_PLACEMENT_3D ( 'NONE', #101, #49, #121 ) ;
#24 = APPLICATION_CONTEXT ( 'configuration controlled 3d designs of mechanical parts and assemblies' ) ;
#25 = COORDINATED_UNIVERSAL_TIME_OFFSET ( 5, 0, .BEHIND. ) ;
#26 = UNCERTAINTY_MEASURE_WITH_UNIT (LENGTH_MEASURE( 1.000000000000000100E-005 ), #85, 'distance_accuracy_value', 'NONE');
#27 = PERSON_AND_ORGANIZATION ( #65, #119 ) ;
#28 = EDGE_LOOP ( 'NONE', ( #5, #108 ) ) ;
#29 = LOCAL_TIME ( 10, 18, 32.00000000000000000, #77 ) ;
#30 = EDGE_CURVE ( 'NONE', #148, #4, #99, .T. ) ;
#31 = APPLICATION_PROTOCOL_DEFINITION ( 'international standard', 'config_control_design', 1994, #21 ) ;
#32 = CARTESIAN_POINT ( 'NONE',  ( -10.00000000000000000, 1.224646799147353300E-015, -3.000000000000000000 ) ) ;
#33 = PERSON_AND_ORGANIZATION ( #65, #119 ) ;
#34 = ORIENTED_EDGE ( 'NONE', *, *, #30, .F. ) ;
#35 = LOCAL_TIME ( 10, 18, 32.00000000000000000, #80 ) ;
#36 = EDGE_CURVE ( 'NONE', #4, #148, #43, .T. ) ;
#37 = APPROVAL_STATUS ( 'not_yet_approved' ) ;
#38 = EDGE_LOOP ( 'NONE', ( #76, #114, #34, #16 ) ) ;
#39 = CIRCLE ( 'NONE', #23, 10.00000000000000000 ) ;
#40 = PERSON_AND_ORGANIZATION ( #65, #119 ) ;
#41 = CC_DESIGN_PERSON_AND_ORGANIZATION_ASSIGNMENT ( #96, #125, ( #58 ) ) ;
#42 = AXIS2_PLACEMENT_3D ( 'NONE', #92, #82, #142 ) ;
#43 = CIRCLE ( 'NONE', #152, 10.00000000000000000 ) ;
#44 = CARTESIAN_POINT ( 'NONE',  ( 0.0000000000000000000, 0.0000000000000000000, -3.000000000000000000 ) ) ;
#45 = CARTESIAN_POINT ( 'NONE',  ( 10.00000000000000000, 0.0000000000000000000, -3.000000000000000000 ) ) ;
#46 = EDGE_CURVE ( 'NONE', #50, #148, #134, .T. ) ;
#47 = DIRECTION ( 'NONE',  ( 0.0000000000000000000, 0.0000000000000000000, 1.000000000000000000 ) ) ;
#48 = PRODUCT_DEFINITION ( 'UNKNOWN', '', #58, #71 ) ;
#49 = DIRECTION ( 'NONE',  ( 0.0000000000000000000, 0.0000000000000000000, 1.000000000000000000 ) ) ;
#50 = VERTEX_POINT ( 'NONE', #20 ) ;
#51 = DIRECTION ( 'NONE',  ( 0.0000000000000000000, 0.0000000000000000000, 1.000000000000000000 ) ) ;
#52 = DATE_TIME_ROLE ( 'creation_date' ) ;
#53 = APPROVAL_DATE_TIME ( #161, #75 ) ;
#54 = COORDINATED_UNIVERSAL_TIME_OFFSET ( 5, 0, .BEHIND. ) ;
#55 = AXIS2_PLACEMENT_3D ( 'NONE', #63, #6, #112 ) ;
#56 = APPROVAL_PERSON_ORGANIZATION ( #94, #117, #72 ) ;
#57 = COORDINATED_UNIVERSAL_TIME_OFFSET ( 5, 0, .BEHIND. ) ;
#58 = PRODUCT_DEFINITION_FORMATION_WITH_SPECIFIED_SOURCE ( 'ANY', '', #141, .NOT_KNOWN. ) ;
#59 = FACE_OUTER_BOUND ( 'NONE', #38, .T. ) ;
#60 = MANIFOLD_SOLID_BREP ( 'Extrude1', #91 ) ;
#61 = VERTEX_POINT ( 'NONE', #32 ) ;
#62 = EDGE_CURVE ( 'NONE', #61, #4, #130, .T. ) ;
#63 = CARTESIAN_POINT ( 'NONE',  ( 0.0000000000000000000, 0.0000000000000000000, -3.000000000000000000 ) ) ;
#64 = CARTESIAN_POINT ( 'NONE',  ( -10.00000000000000000, 1.224646799147353300E-015, -3.000000000000000000 ) ) ;
#65 = PERSON ( 'UNSPECIFIED', 'UNSPECIFIED', 'UNSPECIFIED', ('UNSPECIFIED'), ('UNSPECIFIED'), ('UNSPECIFIED') ) ;
#66 = PLANE ( 'NONE',  #168 ) ;
#67 = CALENDAR_DATE ( 2017, 31, 1 ) ;
#68 = EDGE_LOOP ( 'NONE', ( #97, #157 ) ) ;
#69 = DIRECTION ( 'NONE',  ( 0.0000000000000000000, 0.0000000000000000000, 1.000000000000000000 ) ) ;
#70 =( GEOMETRIC_REPRESENTATION_CONTEXT ( 3 ) GLOBAL_UNCERTAINTY_ASSIGNED_CONTEXT ( ( #26 ) ) GLOBAL_UNIT_ASSIGNED_CONTEXT ( ( #85, #173, #95 ) ) REPRESENTATION_CONTEXT ( 'NONE', 'WORKASPACE' ) );
#71 = DESIGN_CONTEXT ( 'detailed design', #24, 'design' ) ;
#72 = APPROVAL_ROLE ( '' ) ;
#73 = APPROVAL_STATUS ( 'not_yet_approved' ) ;
#74 = PERSON_AND_ORGANIZATION_ROLE ( 'creator' ) ;
#75 = APPROVAL ( #37, 'UNSPECIFIED' ) ;
#76 = ORIENTED_EDGE ( 'NONE', *, *, #128, .T. ) ;
#77 = COORDINATED_UNIVERSAL_TIME_OFFSET ( 5, 0, .BEHIND. ) ;
#78 = PRODUCT_DEFINITION_SHAPE ( 'NONE', 'NONE',  #48 ) ;
#79 = SECURITY_CLASSIFICATION ( '', '', #159 ) ;
#80 = COORDINATED_UNIVERSAL_TIME_OFFSET ( 5, 0, .BEHIND. ) ;
#81 = CARTESIAN_POINT ( 'NONE',  ( 0.0000000000000000000, 0.0000000000000000000, 0.0000000000000000000 ) ) ;
#82 = DIRECTION ( 'NONE',  ( 0.0000000000000000000, 0.0000000000000000000, 1.000000000000000000 ) ) ;
#83 = DIRECTION ( 'NONE',  ( 1.000000000000000000, 0.0000000000000000000, 0.0000000000000000000 ) ) ;
#84 = DIRECTION ( 'NONE',  ( 0.0000000000000000000, 0.0000000000000000000, 1.000000000000000000 ) ) ;
#85 =( LENGTH_UNIT ( ) NAMED_UNIT ( * ) SI_UNIT ( .MILLI., .METRE. ) );
#86 = ORIENTED_EDGE ( 'NONE', *, *, #62, .F. ) ;
#87 = PERSON_AND_ORGANIZATION_ROLE ( 'classification_officer' ) ;
#88 = EDGE_LOOP ( 'NONE', ( #86, #139, #150, #105 ) ) ;
#89 = PERSON_AND_ORGANIZATION ( #65, #119 ) ;
#90 = APPROVAL ( #160, 'UNSPECIFIED' ) ;
#91 = CLOSED_SHELL ( 'NONE', ( #163, #151, #13, #133 ) ) ;
#92 = CARTESIAN_POINT ( 'NONE',  ( 0.0000000000000000000, 0.0000000000000000000, -3.000000000000000000 ) ) ;
#93 = PERSON_AND_ORGANIZATION ( #65, #119 ) ;
#94 = PERSON_AND_ORGANIZATION ( #65, #119 ) ;
#95 =( NAMED_UNIT ( * ) SI_UNIT ( $, .STERADIAN. ) SOLID_ANGLE_UNIT ( ) );
#96 = PERSON_AND_ORGANIZATION ( #65, #119 ) ;
#97 = ORIENTED_EDGE ( 'NONE', *, *, #30, .T. ) ;
#98 = CIRCLE ( 'NONE', #175, 10.00000000000000000 ) ;
#99 = CIRCLE ( 'NONE', #131, 10.00000000000000000 ) ;
#100 = CARTESIAN_POINT ( 'NONE',  ( 0.0000000000000000000, 0.0000000000000000000, -3.000000000000000000 ) ) ;
#101 = CARTESIAN_POINT ( 'NONE',  ( 0.0000000000000000000, 0.0000000000000000000, -3.000000000000000000 ) ) ;
#102 = APPROVAL_ROLE ( '' ) ;
#103 = APPROVAL_DATE_TIME ( #136, #117 ) ;
#104 = PERSON_AND_ORGANIZATION_ROLE ( 'design_supplier' ) ;
#105 = ORIENTED_EDGE ( 'NONE', *, *, #36, .F. ) ;
#106 = CYLINDRICAL_SURFACE ( 'NONE', #42, 10.00000000000000000 ) ;
#107 = DATE_AND_TIME ( #67, #15 ) ;
#108 = ORIENTED_EDGE ( 'NONE', *, *, #138, .F. ) ;
#109 = CC_DESIGN_PERSON_AND_ORGANIZATION_ASSIGNMENT ( #89, #104, ( #58 ) ) ;
#110 = VECTOR ( 'NONE', #111, 1000.000000000000000 ) ;
#111 = DIRECTION ( 'NONE',  ( 0.0000000000000000000, 0.0000000000000000000, 1.000000000000000000 ) ) ;
#112 = DIRECTION ( 'NONE',  ( 1.000000000000000000, 0.0000000000000000000, 0.0000000000000000000 ) ) ;
#113 = APPROVAL_PERSON_ORGANIZATION ( #27, #75, #146 ) ;
#114 = ORIENTED_EDGE ( 'NONE', *, *, #62, .T. ) ;
#115 = LOCAL_TIME ( 10, 18, 32.00000000000000000, #25 ) ;
#116 = DATE_AND_TIME ( #156, #122 ) ;
#117 = APPROVAL ( #73, 'UNSPECIFIED' ) ;
#118 = FACE_OUTER_BOUND ( 'NONE', #88, .T. ) ;
#119 = ORGANIZATION ( 'UNSPECIFIED', 'UNSPECIFIED', '' ) ;
#120 = CARTESIAN_POINT ( 'NONE',  ( -10.00000000000000000, 1.224646799147353300E-015, 0.0000000000000000000 ) ) ;
#121 = DIRECTION ( 'NONE',  ( 1.000000000000000000, 0.0000000000000000000, 0.0000000000000000000 ) ) ;
#122 = LOCAL_TIME ( 10, 18, 32.00000000000000000, #57 ) ;
#123 = CYLINDRICAL_SURFACE ( 'NONE', #55, 10.00000000000000000 ) ;
#124 = CC_DESIGN_DATE_AND_TIME_ASSIGNMENT ( #14, #52, ( #48 ) ) ;
#125 = PERSON_AND_ORGANIZATION_ROLE ( 'creator' ) ;
#126 = CC_DESIGN_DATE_AND_TIME_ASSIGNMENT ( #116, #174, ( #79 ) ) ;
#127 = FACE_OUTER_BOUND ( 'NONE', #28, .T. ) ;
#128 = EDGE_CURVE ( 'NONE', #50, #61, #98, .T. ) ;
#129 = CC_DESIGN_PERSON_AND_ORGANIZATION_ASSIGNMENT ( #144, #8, ( #141 ) ) ;
#130 = LINE ( 'NONE', #64, #12 ) ;
#131 = AXIS2_PLACEMENT_3D ( 'NONE', #18, #47, #154 ) ;
#132 = FACE_OUTER_BOUND ( 'NONE', #68, .T. ) ;
#133 = ADVANCED_FACE ( 'NONE', ( #132 ), #140, .T. ) ;
#134 = LINE ( 'NONE', #45, #110 ) ;
#135 = ADVANCED_BREP_SHAPE_REPRESENTATION ( 'Web Model 45660', ( #60, #11 ), #70 ) ;
#136 = DATE_AND_TIME ( #1, #35 ) ;
#137 = CARTESIAN_POINT ( 'NONE',  ( 10.00000000000000000, 0.0000000000000000000, 0.0000000000000000000 ) ) ;
#138 = EDGE_CURVE ( 'NONE', #61, #50, #39, .T. ) ;
#139 = ORIENTED_EDGE ( 'NONE', *, *, #138, .T. ) ;
#140 = PLANE ( 'NONE',  #164 ) ;
#141 = PRODUCT ( 'Web Model 45660', 'Web Model 45660', '', ( #22 ) ) ;
#142 = DIRECTION ( 'NONE',  ( 1.000000000000000000, 0.0000000000000000000, 0.0000000000000000000 ) ) ;
#143 = DIRECTION ( 'NONE',  ( 1.000000000000000000, 0.0000000000000000000, 0.0000000000000000000 ) ) ;
#144 = PERSON_AND_ORGANIZATION ( #65, #119 ) ;
#145 = CARTESIAN_POINT ( 'NONE',  ( 0.0000000000000000000, 0.0000000000000000000, 0.0000000000000000000 ) ) ;
#146 = APPROVAL_ROLE ( '' ) ;
#147 = CC_DESIGN_SECURITY_CLASSIFICATION ( #79, ( #58 ) ) ;
#148 = VERTEX_POINT ( 'NONE', #137 ) ;
#149 = CC_DESIGN_APPROVAL ( #90, ( #58 ) ) ;
#150 = ORIENTED_EDGE ( 'NONE', *, *, #46, .T. ) ;
#151 = ADVANCED_FACE ( 'NONE', ( #118 ), #123, .T. ) ;
#152 = AXIS2_PLACEMENT_3D ( 'NONE', #81, #167, #83 ) ;
#153 = CC_DESIGN_APPROVAL ( #117, ( #48 ) ) ;
#154 = DIRECTION ( 'NONE',  ( 1.000000000000000000, 0.0000000000000000000, 0.0000000000000000000 ) ) ;
#155 = DIRECTION ( 'NONE',  ( 1.000000000000000000, 0.0000000000000000000, -0.0000000000000000000 ) ) ;
#156 = CALENDAR_DATE ( 2017, 31, 1 ) ;
#157 = ORIENTED_EDGE ( 'NONE', *, *, #36, .T. ) ;
#158 = DIRECTION ( 'NONE',  ( 1.000000000000000000, 0.0000000000000000000, 0.0000000000000000000 ) ) ;
#159 = SECURITY_CLASSIFICATION_LEVEL ( 'unclassified' ) ;
#160 = APPROVAL_STATUS ( 'not_yet_approved' ) ;
#161 = DATE_AND_TIME ( #17, #115 ) ;
#162 = APPROVAL_PERSON_ORGANIZATION ( #33, #90, #102 ) ;
#163 = ADVANCED_FACE ( 'NONE', ( #59 ), #106, .T. ) ;
#164 = AXIS2_PLACEMENT_3D ( 'NONE', #170, #19, #172 ) ;
#165 = CALENDAR_DATE ( 2017, 31, 1 ) ;
#166 = CC_DESIGN_APPROVAL ( #75, ( #79 ) ) ;
#167 = DIRECTION ( 'NONE',  ( 0.0000000000000000000, 0.0000000000000000000, 1.000000000000000000 ) ) ;
#168 = AXIS2_PLACEMENT_3D ( 'NONE', #44, #69, #155 ) ;
#169 = CC_DESIGN_PERSON_AND_ORGANIZATION_ASSIGNMENT ( #40, #74, ( #48 ) ) ;
#170 = CARTESIAN_POINT ( 'NONE',  ( 0.0000000000000000000, 0.0000000000000000000, 0.0000000000000000000 ) ) ;
#171 = SHAPE_DEFINITION_REPRESENTATION ( #78, #135 ) ;
#172 = DIRECTION ( 'NONE',  ( 1.000000000000000000, 0.0000000000000000000, -0.0000000000000000000 ) ) ;
#173 =( NAMED_UNIT ( * ) PLANE_ANGLE_UNIT ( ) SI_UNIT ( $, .RADIAN. ) );
#174 = DATE_TIME_ROLE ( 'classification_date' ) ;
#175 = AXIS2_PLACEMENT_3D ( 'NONE', #100, #7, #158 ) ;
ENDSEC;
END-ISO-10303-21;
