ISO-10303-21;
HEADER;
FILE_DESCRIPTION (( 'STEP AP203' ),
    '1' );
FILE_NAME ('10mm BEAMSPLITTER CUBE TS_13422.step',
    '2020-10-29T14:33:16',
    ( '' ),
    ( '' ),
    'SwSTEP 2.0',
    'SolidWorks 2018',
    '' );
FILE_SCHEMA (( 'CONFIG_CONTROL_DESIGN' ));
ENDSEC;

DATA;
#1 = SECURITY_CLASSIFICATION_LEVEL ( 'unclassified' ) ;
#2 = LOCAL_TIME ( 10, 33, 16.00000000000000000, #64 ) ;
#3 = COORDINATED_UNIVERSAL_TIME_OFFSET ( 5, 0, .BEHIND. ) ;
#4 = AXIS2_PLACEMENT_3D ( 'NONE', #125, #121, #182 ) ;
#5 = UNCERTAINTY_MEASURE_WITH_UNIT (LENGTH_MEASURE( 1.000000000000000082E-05 ), #244, 'distance_accuracy_value', 'NONE');
#6 = FACE_OUTER_BOUND ( 'NONE', #12, .T. ) ;
#7 = CARTESIAN_POINT ( 'NONE',  ( 5.000000000000000000, 7.071067811865434649, -4.801055335612047211E-16 ) ) ;
#8 = CC_DESIGN_APPROVAL ( #327, ( #296 ) ) ;
#9 = CC_DESIGN_SECURITY_CLASSIFICATION ( #74, ( #269 ) ) ;
#10 = DATE_TIME_ROLE ( 'classification_date' ) ;
#11 = LINE ( 'NONE', #323, #298 ) ;
#12 = EDGE_LOOP ( 'NONE', ( #78, #328, #317, #107 ) ) ;
#13 = CARTESIAN_POINT ( 'NONE',  ( 5.000000000000000000, 0.0000000000000000000, 7.071067811865514585 ) ) ;
#14 = DIRECTION ( 'NONE',  ( 0.0000000000000000000, -0.7071067811865513475, 0.7071067811865436870 ) ) ;
#15 = COORDINATED_UNIVERSAL_TIME_OFFSET ( 5, 0, .BEHIND. ) ;
#16 = VECTOR ( 'NONE', #168, 999.9999999999998863 ) ;
#17 = CC_DESIGN_APPROVAL ( #352, ( #74 ) ) ;
#18 = AXIS2_PLACEMENT_3D ( 'NONE', #66, #128, #243 ) ;
#19 = DIRECTION ( 'NONE',  ( 1.000000000000000000, 0.0000000000000000000, 0.0000000000000000000 ) ) ;
#20 = CALENDAR_DATE ( 2020, 29, 10 ) ;
#21 = APPROVAL_STATUS ( 'not_yet_approved' ) ;
#22 = SHAPE_REPRESENTATION_RELATIONSHIP ( 'NONE' , 'NONE' ,  #263, #101 ) ;
#23 = PRODUCT ( '10mm BEAMSPLITTER CUBE TS_13422', '10mm BEAMSPLITTER CUBE TS_13422', '', ( #276 ) ) ;
#24 = FACE_OUTER_BOUND ( 'NONE', #258, .T. ) ;
#25 = DIRECTION ( 'NONE',  ( 0.0000000000000000000, 0.0000000000000000000, 1.000000000000000000 ) ) ;
#26 = SECURITY_CLASSIFICATION ( '', '', #100 ) ;
#27 = APPROVAL_STATUS ( 'not_yet_approved' ) ;
#28 = PERSON_AND_ORGANIZATION ( #71, #201 ) ;
#29 =( REPRESENTATION_RELATIONSHIP ('NONE','NONE', #148, #263 ) REPRESENTATION_RELATIONSHIP_WITH_TRANSFORMATION ( #157 )SHAPE_REPRESENTATION_RELATIONSHIP( ) );
#30 = COORDINATED_UNIVERSAL_TIME_OFFSET ( 5, 0, .BEHIND. ) ;
#31 = ORIENTED_EDGE ( 'NONE', *, *, #144, .T. ) ;
#32 = APPLICATION_CONTEXT ( 'configuration controlled 3d designs of mechanical parts and assemblies' ) ;
#33 = ORIENTED_EDGE ( 'NONE', *, *, #289, .F. ) ;
#34 = PLANE ( 'NONE',  #110 ) ;
#35 = PRODUCT_DEFINITION ( 'UNKNOWN', '', #296, #175 ) ;
#36 =( GEOMETRIC_REPRESENTATION_CONTEXT ( 3 ) GLOBAL_UNCERTAINTY_ASSIGNED_CONTEXT ( ( #5 ) ) GLOBAL_UNIT_ASSIGNED_CONTEXT ( ( #244, #184, #331 ) ) REPRESENTATION_CONTEXT ( 'NONE', 'WORKASPACE' ) );
#37 = APPROVAL_DATE_TIME ( #320, #280 ) ;
#38 = PERSON_AND_ORGANIZATION ( #71, #201 ) ;
#39 = LOCAL_TIME ( 10, 33, 16.00000000000000000, #208 ) ;
#40 = VECTOR ( 'NONE', #62, 1000.000000000000000 ) ;
#41 = DIRECTION ( 'NONE',  ( 0.0000000000000000000, 0.0000000000000000000, 1.000000000000000000 ) ) ;
#42 = PRODUCT_DEFINITION_SHAPE ( 'NONE', 'NONE',  #233 ) ;
#43 = DIRECTION ( 'NONE',  ( -1.000000000000000000, 0.0000000000000000000, 0.0000000000000000000 ) ) ;
#44 = APPLICATION_PROTOCOL_DEFINITION ( 'international standard', 'config_control_design', 1994, #238 ) ;
#45 = ORGANIZATION ( 'NAUO-ORG2', 'UNSPECIFIED', 'UNSPECIFIED' ) ;
#46 = DIRECTION ( 'NONE',  ( 0.0000000000000000000, -0.7071067811865435759, 0.7071067811865515695 ) ) ;
#47 = DATE_AND_TIME ( #20, #80 ) ;
#48 = DATE_AND_TIME ( #112, #210 ) ;
#49 = APPROVAL_STATUS ( 'not_yet_approved' ) ;
#50 = DIRECTION ( 'NONE',  ( 0.0000000000000000000, 0.0000000000000000000, 1.000000000000000000 ) ) ;
#51 = PERSON_AND_ORGANIZATION_ROLE ( 'creator' ) ;
#52 = MANIFOLD_SOLID_BREP ( 'Extrude1', #99 ) ;
#53 = PERSON_AND_ORGANIZATION ( #71, #201 ) ;
#54 = PERSON_AND_ORGANIZATION ( #71, #201 ) ;
#55 = VERTEX_POINT ( 'NONE', #313 ) ;
#56 = CC_DESIGN_APPROVAL ( #280, ( #265 ) ) ;
#57 = APPROVAL ( #49, 'UNSPECIFIED' ) ;
#58 = DATE_AND_TIME ( #132, #2 ) ;
#59 = CARTESIAN_POINT ( 'NONE',  ( -5.000000000000000000, 0.0000000000000000000, 7.071067811865514585 ) ) ;
#60 = LINE ( 'NONE', #353, #311 ) ;
#61 = VERTEX_POINT ( 'NONE', #142 ) ;
#62 = DIRECTION ( 'NONE',  ( -1.000000000000000000, -0.0000000000000000000, -0.0000000000000000000 ) ) ;
#63 = CARTESIAN_POINT ( 'NONE',  ( 5.000000000000000000, 7.071067811865434649, -4.801055335612047211E-16 ) ) ;
#64 = COORDINATED_UNIVERSAL_TIME_OFFSET ( 5, 0, .BEHIND. ) ;
#65 = APPROVAL_PERSON_ORGANIZATION ( #198, #57, #357 ) ;
#66 = CARTESIAN_POINT ( 'NONE',  ( 0.0000000000000000000, 0.0000000000000000000, 0.0000000000000000000 ) ) ;
#67 = AXIS2_PLACEMENT_3D ( 'NONE', #277, #156, #212 ) ;
#68 = PERSON_AND_ORGANIZATION_ROLE ( 'creator' ) ;
#69 = VECTOR ( 'NONE', #291, 1000.000000000000000 ) ;
#70 = CARTESIAN_POINT ( 'NONE',  ( 0.0000000000000000000, 0.0000000000000000000, 0.0000000000000000000 ) ) ;
#71 = PERSON ( 'UNSPECIFIED', 'UNSPECIFIED', 'UNSPECIFIED', ('UNSPECIFIED'), ('UNSPECIFIED'), ('UNSPECIFIED') ) ;
#72 = APPROVAL_STATUS ( 'not_yet_approved' ) ;
#73 = CALENDAR_DATE ( 2020, 29, 10 ) ;
#74 = SECURITY_CLASSIFICATION ( '', '', #279 ) ;
#75 = CALENDAR_DATE ( 2020, 29, 10 ) ;
#76 = PERSON_AND_ORGANIZATION ( #71, #201 ) ;
#77 = SHAPE_DEFINITION_REPRESENTATION ( #248, #263 ) ;
#78 = ORIENTED_EDGE ( 'NONE', *, *, #105, .T. ) ;
#79 = CARTESIAN_POINT ( 'NONE',  ( 5.000000000000000000, -8.659560562349064226E-16, -7.071067811865514585 ) ) ;
#80 = LOCAL_TIME ( 10, 33, 16.00000000000000000, #246 ) ;
#81 = SECURITY_CLASSIFICATION ( '', '', #1 ) ;
#82 = CONTEXT_DEPENDENT_SHAPE_REPRESENTATION ( #163, #225 ) ;
#83 = DATE_AND_TIME ( #173, #252 ) ;
#84 = CC_DESIGN_PERSON_AND_ORGANIZATION_ASSIGNMENT ( #197, #68, ( #296 ) ) ;
#85 = ORIENTED_EDGE ( 'NONE', *, *, #250, .F. ) ;
#86 = CARTESIAN_POINT ( 'NONE',  ( 5.000000000000000000, 7.071067811865433761, -1.734723475976807094E-15 ) ) ;
#87 = ADVANCED_FACE ( 'NONE', ( #6 ), #34, .F. ) ;
#88 = APPROVAL_PERSON_ORGANIZATION ( #28, #352, #242 ) ;
#89 = CARTESIAN_POINT ( 'NONE',  ( -5.000000000000000000, 0.0000000000000000000, 7.071067811865514585 ) ) ;
#90 = CC_DESIGN_PERSON_AND_ORGANIZATION_ASSIGNMENT ( #53, #94, ( #284 ) ) ;
#91 = PERSON_AND_ORGANIZATION_ROLE ( 'design_supplier' ) ;
#92 = CARTESIAN_POINT ( 'NONE',  ( 5.000000000000000000, 0.0000000000000000000, 7.071067811865514585 ) ) ;
#93 = PERSON_AND_ORGANIZATION ( #71, #201 ) ;
#94 = PERSON_AND_ORGANIZATION_ROLE ( 'design_owner' ) ;
#95 = ORIENTED_EDGE ( 'NONE', *, *, #143, .T. ) ;
#96 = DIRECTION ( 'NONE',  ( 1.000000000000000000, 0.0000000000000000000, 0.0000000000000000000 ) ) ;
#97 = APPROVAL_PERSON_ORGANIZATION ( #202, #205, #337 ) ;
#98 = DATE_AND_TIME ( #73, #149 ) ;
#99 = CLOSED_SHELL ( 'NONE', ( #87, #188, #303, #127, #319 ) ) ;
#100 = SECURITY_CLASSIFICATION_LEVEL ( 'unclassified' ) ;
#101 = ADVANCED_BREP_SHAPE_REPRESENTATION ( '', ( #52, #195 ), #171 ) ;
#102 = CC_DESIGN_PERSON_AND_ORGANIZATION_ASSIGNMENT ( #202, #103, ( #81 ) ) ;
#103 = PERSON_AND_ORGANIZATION_ROLE ( 'classification_officer' ) ;
#104 = APPROVAL_DATE_TIME ( #261, #327 ) ;
#105 = EDGE_CURVE ( 'NONE', #55, #278, #254, .T. ) ;
#106 = PERSON_AND_ORGANIZATION ( #71, #201 ) ;
#107 = ORIENTED_EDGE ( 'NONE', *, *, #166, .T. ) ;
#108 = CC_DESIGN_APPROVAL ( #205, ( #81 ) ) ;
#109 = CC_DESIGN_APPROVAL ( #209, ( #233 ) ) ;
#110 = AXIS2_PLACEMENT_3D ( 'NONE', #7, #138, #255 ) ;
#111 = PERSON_AND_ORGANIZATION ( #71, #201 ) ;
#112 = CALENDAR_DATE ( 2020, 29, 10 ) ;
#113 = ORIENTED_EDGE ( 'NONE', *, *, #123, .F. ) ;
#114 = DIRECTION ( 'NONE',  ( -1.000000000000000000, -0.0000000000000000000, -0.0000000000000000000 ) ) ;
#115 = COORDINATED_UNIVERSAL_TIME_OFFSET ( 5, 0, .BEHIND. ) ;
#116 = CC_DESIGN_DATE_AND_TIME_ASSIGNMENT ( #239, #159, ( #35 ) ) ;
#117 = VERTEX_POINT ( 'NONE', #341 ) ;
#118 = PRODUCT_DEFINITION_SHAPE ( 'NONE', 'NONE',  #361 ) ;
#119 = CARTESIAN_POINT ( 'NONE',  ( -5.000000000000000000, -8.659560562349064226E-16, -7.071067811865514585 ) ) ;
#120 = APPROVAL_DATE_TIME ( #256, #352 ) ;
#121 = DIRECTION ( 'NONE',  ( 0.0000000000000000000, 1.000000000000000000, 1.110223024625156540E-16 ) ) ;
#122 = APPLICATION_PROTOCOL_DEFINITION ( 'international standard', 'config_control_design', 1994, #301 ) ;
#123 = EDGE_CURVE ( 'NONE', #117, #338, #312, .T. ) ;
#124 = APPROVAL_ROLE ( '' ) ;
#125 = CARTESIAN_POINT ( 'NONE',  ( 0.0000000000000000000, 0.0000000000000000000, 0.0000000000000000000 ) ) ;
#126 = ORIENTED_EDGE ( 'NONE', *, *, #123, .T. ) ;
#127 = ADVANCED_FACE ( 'NONE', ( #24 ), #206, .F. ) ;
#128 = DIRECTION ( 'NONE',  ( -6.162975822039154730E-33, -1.000000000000000000, -1.110223024625156787E-16 ) ) ;
#129 = APPROVAL_ROLE ( '' ) ;
#130 = DATE_TIME_ROLE ( 'classification_date' ) ;
#131 = CC_DESIGN_PERSON_AND_ORGANIZATION_ASSIGNMENT ( #185, #51, ( #269 ) ) ;
#132 = CALENDAR_DATE ( 2020, 29, 10 ) ;
#133 = APPROVAL_DATE_TIME ( #48, #57 ) ;
#134 = CC_DESIGN_APPROVAL ( #220, ( #26 ) ) ;
#135 = APPROVAL_DATE_TIME ( #196, #205 ) ;
#136 = DATE_AND_TIME ( #216, #316 ) ;
#137 = ORIENTED_EDGE ( 'NONE', *, *, #289, .T. ) ;
#138 = DIRECTION ( 'NONE',  ( 0.0000000000000000000, -0.7071067811865515695, -0.7071067811865435759 ) ) ;
#139 = CC_DESIGN_SECURITY_CLASSIFICATION ( #81, ( #361 ) ) ;
#140 = PERSON_AND_ORGANIZATION ( #71, #201 ) ;
#141 = DATE_AND_TIME ( #75, #241 ) ;
#142 = CARTESIAN_POINT ( 'NONE',  ( 5.000000000000000000, 7.071067811865434649, -4.801055335612047211E-16 ) ) ;
#143 = EDGE_CURVE ( 'NONE', #278, #338, #147, .T. ) ;
#144 = EDGE_CURVE ( 'NONE', #321, #278, #294, .T. ) ;
#145 = CC_DESIGN_PERSON_AND_ORGANIZATION_ASSIGNMENT ( #76, #309, ( #296 ) ) ;
#146 = APPROVAL_PERSON_ORGANIZATION ( #54, #209, #271 ) ;
#147 = LINE ( 'NONE', #59, #69 ) ;
#148 = SHAPE_REPRESENTATION ( '10mm BEAMSPLITTER CUBE TS_13422', ( #67, #4, #18 ), #36 ) ;
#149 = LOCAL_TIME ( 10, 33, 16.00000000000000000, #30 ) ;
#150 = AXIS2_PLACEMENT_3D ( 'NONE', #351, #43, #176 ) ;
#151 = PERSON_AND_ORGANIZATION_ROLE ( 'classification_officer' ) ;
#152 = DIRECTION ( 'NONE',  ( 0.0000000000000000000, 6.123233995732582608E-17, 1.000000000000000000 ) ) ;
#153 = CC_DESIGN_SECURITY_CLASSIFICATION ( #265, ( #296 ) ) ;
#154 = APPLICATION_PROTOCOL_DEFINITION ( 'international standard', 'config_control_design', 1994, #32 ) ;
#155 = PERSON ( 'NAUO-PER2', 'UNSPECIFIED', 'UNSPECIFIED', ('UNSPECIFIED'), ('UNSPECIFIED'), ('UNSPECIFIED') ) ;
#156 = DIRECTION ( 'NONE',  ( 0.0000000000000000000, 0.0000000000000000000, 1.000000000000000000 ) ) ;
#157 = ITEM_DEFINED_TRANSFORMATION ( 'NONE', 'NONE', #18,  #195 ) ;
#158 = ORIENTED_EDGE ( 'NONE', *, *, #186, .T. ) ;
#159 = DATE_TIME_ROLE ( 'creation_date' ) ;
#160 = PERSON_AND_ORGANIZATION_ROLE ( 'design_owner' ) ;
#161 = SECURITY_CLASSIFICATION_LEVEL ( 'unclassified' ) ;
#162 = APPROVAL_PERSON_ORGANIZATION ( #229, #327, #213 ) ;
#163 =( REPRESENTATION_RELATIONSHIP ('NONE','NONE', #148, #263 ) REPRESENTATION_RELATIONSHIP_WITH_TRANSFORMATION ( #172 )SHAPE_REPRESENTATION_RELATIONSHIP( ) );
#164 = PERSON ( 'NAUO-PER1', 'UNSPECIFIED', 'UNSPECIFIED', ('UNSPECIFIED'), ('UNSPECIFIED'), ('UNSPECIFIED') ) ;
#165 = PERSON_AND_ORGANIZATION_ROLE ( 'classification_officer' ) ;
#166 = EDGE_CURVE ( 'NONE', #61, #55, #203, .T. ) ;
#167 = DATE_AND_TIME ( #270, #39 ) ;
#168 = DIRECTION ( 'NONE',  ( 0.0000000000000000000, -0.7071067811865435759, 0.7071067811865515695 ) ) ;
#169 = PERSON_AND_ORGANIZATION ( #71, #201 ) ;
#170 = PRODUCT_RELATED_PRODUCT_CATEGORY ( 'detail', '', ( #23 ) ) ;
#171 =( GEOMETRIC_REPRESENTATION_CONTEXT ( 3 ) GLOBAL_UNCERTAINTY_ASSIGNED_CONTEXT ( ( #181 ) ) GLOBAL_UNIT_ASSIGNED_CONTEXT ( ( #221, #339, #180 ) ) REPRESENTATION_CONTEXT ( 'NONE', 'WORKASPACE' ) );
#172 = ITEM_DEFINED_TRANSFORMATION ( 'NONE', 'NONE', #4,  #195 ) ;
#173 = CALENDAR_DATE ( 2020, 29, 10 ) ;
#174 = EDGE_LOOP ( 'NONE', ( #95, #113, #273, #31 ) ) ;
#175 = DESIGN_CONTEXT ( 'detailed design', #301, 'design' ) ;
#176 = DIRECTION ( 'NONE',  ( 0.0000000000000000000, 0.0000000000000000000, 1.000000000000000000 ) ) ;
#177 = CALENDAR_DATE ( 2020, 29, 10 ) ;
#178 = LINE ( 'NONE', #63, #227 ) ;
#179 = CARTESIAN_POINT ( 'NONE',  ( 5.000000000000000000, -8.659560562349064226E-16, -7.071067811865514585 ) ) ;
#180 =( NAMED_UNIT ( * ) SI_UNIT ( $, .STERADIAN. ) SOLID_ANGLE_UNIT ( ) );
#181 = UNCERTAINTY_MEASURE_WITH_UNIT (LENGTH_MEASURE( 1.000000000000000082E-05 ), #221, 'distance_accuracy_value', 'NONE');
#182 = DIRECTION ( 'NONE',  ( 1.000000000000000000, 0.0000000000000000000, 0.0000000000000000000 ) ) ;
#183 = LOCAL_TIME ( 10, 33, 16.00000000000000000, #302 ) ;
#184 =( NAMED_UNIT ( * ) PLANE_ANGLE_UNIT ( ) SI_UNIT ( $, .RADIAN. ) );
#185 = PERSON_AND_ORGANIZATION ( #71, #201 ) ;
#186 = EDGE_CURVE ( 'NONE', #61, #321, #178, .T. ) ;
#187 = PERSON_AND_ORGANIZATION_ROLE ( 'creator' ) ;
#188 = ADVANCED_FACE ( 'NONE', ( #192 ), #268, .F. ) ;
#189 = APPLICATION_PROTOCOL_DEFINITION ( 'international standard', 'config_control_design', 1994, #236 ) ;
#190 = CONTEXT_DEPENDENT_SHAPE_REPRESENTATION ( #29, #118 ) ;
#191 = LOCAL_TIME ( 10, 33, 16.00000000000000000, #314 ) ;
#192 = FACE_OUTER_BOUND ( 'NONE', #174, .T. ) ;
#193 = CC_DESIGN_DATE_AND_TIME_ASSIGNMENT ( #58, #10, ( #81 ) ) ;
#194 = CC_DESIGN_PERSON_AND_ORGANIZATION_ASSIGNMENT ( #230, #160, ( #23 ) ) ;
#195 = AXIS2_PLACEMENT_3D ( 'NONE', #70, #25, #19 ) ;
#196 = DATE_AND_TIME ( #306, #214 ) ;
#197 = PERSON_AND_ORGANIZATION ( #71, #201 ) ;
#198 = PERSON_AND_ORGANIZATION ( #71, #201 ) ;
#199 = CC_DESIGN_PERSON_AND_ORGANIZATION_ASSIGNMENT ( #346, #218, ( #233 ) ) ;
#200 = COORDINATED_UNIVERSAL_TIME_OFFSET ( 5, 0, .BEHIND. ) ;
#201 = ORGANIZATION ( 'UNSPECIFIED', 'UNSPECIFIED', '' ) ;
#202 = PERSON_AND_ORGANIZATION ( #155, #45 ) ;
#203 = LINE ( 'NONE', #295, #40 ) ;
#204 = CC_DESIGN_SECURITY_CLASSIFICATION ( #26, ( #360 ) ) ;
#205 = APPROVAL ( #72, 'UNKNOWN' ) ;
#206 = PLANE ( 'NONE',  #223 ) ;
#207 = PLANE ( 'NONE',  #240 ) ;
#208 = COORDINATED_UNIVERSAL_TIME_OFFSET ( 5, 0, .BEHIND. ) ;
#209 = APPROVAL ( #27, 'UNSPECIFIED' ) ;
#210 = LOCAL_TIME ( 10, 33, 16.00000000000000000, #3 ) ;
#211 = MECHANICAL_CONTEXT ( 'NONE', #238, 'mechanical' ) ;
#212 = DIRECTION ( 'NONE',  ( 1.000000000000000000, 0.0000000000000000000, 0.0000000000000000000 ) ) ;
#213 = APPROVAL_ROLE ( '' ) ;
#214 = LOCAL_TIME ( 10, 33, 16.00000000000000000, #292 ) ;
#215 = CARTESIAN_POINT ( 'NONE',  ( 0.0000000000000000000, 0.0000000000000000000, 0.0000000000000000000 ) ) ;
#216 = CALENDAR_DATE ( 2020, 29, 10 ) ;
#217 = VECTOR ( 'NONE', #114, 1000.000000000000000 ) ;
#218 = PERSON_AND_ORGANIZATION_ROLE ( 'creator' ) ;
#219 = CC_DESIGN_APPROVAL ( #249, ( #35 ) ) ;
#220 = APPROVAL ( #305, 'UNKNOWN' ) ;
#221 =( LENGTH_UNIT ( ) NAMED_UNIT ( * ) SI_UNIT ( .MILLI., .METRE. ) );
#222 = APPROVAL_PERSON_ORGANIZATION ( #315, #220, #129 ) ;
#223 = AXIS2_PLACEMENT_3D ( 'NONE', #86, #231, #41 ) ;
#224 = ORIENTED_EDGE ( 'NONE', *, *, #143, .F. ) ;
#225 = PRODUCT_DEFINITION_SHAPE ( 'NONE', 'NONE',  #360 ) ;
#226 = DATE_AND_TIME ( #354, #297 ) ;
#227 = VECTOR ( 'NONE', #46, 999.9999999999998863 ) ;
#228 = DESIGN_CONTEXT ( 'detailed design', #32, 'design' ) ;
#229 = PERSON_AND_ORGANIZATION ( #71, #201 ) ;
#230 = PERSON_AND_ORGANIZATION ( #71, #201 ) ;
#231 = DIRECTION ( 'NONE',  ( -1.000000000000000000, 0.0000000000000000000, 0.0000000000000000000 ) ) ;
#232 = CC_DESIGN_PERSON_AND_ORGANIZATION_ASSIGNMENT ( #111, #245, ( #265 ) ) ;
#233 = PRODUCT_DEFINITION ( 'UNKNOWN', '', #269, #228 ) ;
#234 = LOCAL_TIME ( 10, 33, 16.00000000000000000, #15 ) ;
#235 = PLANE ( 'NONE',  #150 ) ;
#236 = APPLICATION_CONTEXT ( 'configuration controlled 3d designs of mechanical parts and assemblies' ) ;
#237 = CARTESIAN_POINT ( 'NONE',  ( 5.000000000000000000, 0.0000000000000000000, 7.071067811865514585 ) ) ;
#238 = APPLICATION_CONTEXT ( 'configuration controlled 3d designs of mechanical parts and assemblies' ) ;
#239 = DATE_AND_TIME ( #177, #234 ) ;
#240 = AXIS2_PLACEMENT_3D ( 'NONE', #179, #14, #300 ) ;
#241 = LOCAL_TIME ( 10, 33, 16.00000000000000000, #115 ) ;
#242 = APPROVAL_ROLE ( '' ) ;
#243 = DIRECTION ( 'NONE',  ( 1.000000000000000000, -6.162975822039156098E-33, 6.162975822039154730E-33 ) ) ;
#244 =( LENGTH_UNIT ( ) NAMED_UNIT ( * ) SI_UNIT ( .MILLI., .METRE. ) );
#245 = PERSON_AND_ORGANIZATION_ROLE ( 'classification_officer' ) ;
#246 = COORDINATED_UNIVERSAL_TIME_OFFSET ( 5, 0, .BEHIND. ) ;
#247 = ORIENTED_EDGE ( 'NONE', *, *, #318, .T. ) ;
#248 = PRODUCT_DEFINITION_SHAPE ( 'NONE', 'NONE',  #35 ) ;
#249 = APPROVAL ( #329, 'UNSPECIFIED' ) ;
#250 = EDGE_CURVE ( 'NONE', #338, #55, #358, .T. ) ;
#251 = COORDINATED_UNIVERSAL_TIME_OFFSET ( 5, 0, .BEHIND. ) ;
#252 = LOCAL_TIME ( 10, 33, 16.00000000000000000, #326 ) ;
#253 = APPROVAL_ROLE ( '' ) ;
#254 = LINE ( 'NONE', #260, #16 ) ;
#255 = DIRECTION ( 'NONE',  ( 0.0000000000000000000, 0.7071067811865435759, -0.7071067811865515695 ) ) ;
#256 = DATE_AND_TIME ( #286, #191 ) ;
#257 = CC_DESIGN_DATE_AND_TIME_ASSIGNMENT ( #226, #281, ( #265 ) ) ;
#258 = EDGE_LOOP ( 'NONE', ( #158, #247, #137 ) ) ;
#259 = CC_DESIGN_APPROVAL ( #57, ( #269 ) ) ;
#260 = CARTESIAN_POINT ( 'NONE',  ( -5.000000000000000000, 7.071067811865434649, -4.801055335612047211E-16 ) ) ;
#261 = DATE_AND_TIME ( #335, #307 ) ;
#262 = VECTOR ( 'NONE', #272, 1000.000000000000114 ) ;
#263 = SHAPE_REPRESENTATION ( '10x10 Right Angle Prism Master', ( #195 ), #171 ) ;
#264 = AXIS2_PLACEMENT_3D ( 'NONE', #92, #299, #152 ) ;
#265 = SECURITY_CLASSIFICATION ( '', '', #161 ) ;
#266 = APPROVAL_DATE_TIME ( #47, #249 ) ;
#267 = ORIENTED_EDGE ( 'NONE', *, *, #250, .T. ) ;
#268 = PLANE ( 'NONE',  #264 ) ;
#269 = PRODUCT_DEFINITION_FORMATION_WITH_SPECIFIED_SOURCE ( 'ANY', '', #23, .NOT_KNOWN. ) ;
#270 = CALENDAR_DATE ( 2020, 29, 10 ) ;
#271 = APPROVAL_ROLE ( '' ) ;
#272 = DIRECTION ( 'NONE',  ( 0.0000000000000000000, 0.7071067811865435759, 0.7071067811865513475 ) ) ;
#273 = ORIENTED_EDGE ( 'NONE', *, *, #318, .F. ) ;
#274 = DATE_TIME_ROLE ( 'classification_date' ) ;
#275 = CARTESIAN_POINT ( 'NONE',  ( -5.000000000000000000, -8.659560562349064226E-16, -7.071067811865514585 ) ) ;
#276 = MECHANICAL_CONTEXT ( 'NONE', #236, 'mechanical' ) ;
#277 = CARTESIAN_POINT ( 'NONE',  ( 0.0000000000000000000, 0.0000000000000000000, 0.0000000000000000000 ) ) ;
#278 = VERTEX_POINT ( 'NONE', #89 ) ;
#279 = SECURITY_CLASSIFICATION_LEVEL ( 'unclassified' ) ;
#280 = APPROVAL ( #308, 'UNSPECIFIED' ) ;
#281 = DATE_TIME_ROLE ( 'classification_date' ) ;
#282 = CC_DESIGN_DATE_AND_TIME_ASSIGNMENT ( #83, #274, ( #74 ) ) ;
#283 = APPROVAL_PERSON_ORGANIZATION ( #169, #280, #253 ) ;
#284 = PRODUCT ( '10x10 Right Angle Prism Master', '10x10 Right Angle Prism Master', '', ( #211 ) ) ;
#285 = EDGE_LOOP ( 'NONE', ( #333, #85, #224 ) ) ;
#286 = CALENDAR_DATE ( 2020, 29, 10 ) ;
#287 = FACE_OUTER_BOUND ( 'NONE', #342, .T. ) ;
#288 = CC_DESIGN_PERSON_AND_ORGANIZATION_ASSIGNMENT ( #106, #91, ( #269 ) ) ;
#289 = EDGE_CURVE ( 'NONE', #117, #61, #11, .T. ) ;
#290 = CC_DESIGN_PERSON_AND_ORGANIZATION_ASSIGNMENT ( #93, #187, ( #35 ) ) ;
#291 = DIRECTION ( 'NONE',  ( 0.0000000000000000000, -6.123233995732582608E-17, -1.000000000000000000 ) ) ;
#292 = COORDINATED_UNIVERSAL_TIME_OFFSET ( 5, 0, .BEHIND. ) ;
#293 = FACE_OUTER_BOUND ( 'NONE', #285, .T. ) ;
#294 = LINE ( 'NONE', #13, #217 ) ;
#295 = CARTESIAN_POINT ( 'NONE',  ( 5.000000000000000000, 7.071067811865434649, -4.801055335612047211E-16 ) ) ;
#296 = PRODUCT_DEFINITION_FORMATION_WITH_SPECIFIED_SOURCE ( 'ANY', '', #284, .NOT_KNOWN. ) ;
#297 = LOCAL_TIME ( 10, 33, 16.00000000000000000, #251 ) ;
#298 = VECTOR ( 'NONE', #356, 1000.000000000000114 ) ;
#299 = DIRECTION ( 'NONE',  ( 0.0000000000000000000, 1.000000000000000000, -6.123233995732582608E-17 ) ) ;
#300 = DIRECTION ( 'NONE',  ( 0.0000000000000000000, -0.7071067811865436870, -0.7071067811865513475 ) ) ;
#301 = APPLICATION_CONTEXT ( 'configuration controlled 3d designs of mechanical parts and assemblies' ) ;
#302 = COORDINATED_UNIVERSAL_TIME_OFFSET ( 5, 0, .BEHIND. ) ;
#303 = ADVANCED_FACE ( 'NONE', ( #287 ), #207, .F. ) ;
#304 = PRODUCT_RELATED_PRODUCT_CATEGORY ( 'detail', '', ( #284 ) ) ;
#305 = APPROVAL_STATUS ( 'not_yet_approved' ) ;
#306 = CALENDAR_DATE ( 2020, 29, 10 ) ;
#307 = LOCAL_TIME ( 10, 33, 16.00000000000000000, #200 ) ;
#308 = APPROVAL_STATUS ( 'not_yet_approved' ) ;
#309 = PERSON_AND_ORGANIZATION_ROLE ( 'design_supplier' ) ;
#310 = ORGANIZATION ( 'NAUO-ORG1', 'UNSPECIFIED', 'UNSPECIFIED' ) ;
#311 = VECTOR ( 'NONE', #322, 1000.000000000000000 ) ;
#312 = LINE ( 'NONE', #79, #350 ) ;
#313 = CARTESIAN_POINT ( 'NONE',  ( -5.000000000000000000, 7.071067811865434649, -4.801055335612047211E-16 ) ) ;
#314 = COORDINATED_UNIVERSAL_TIME_OFFSET ( 5, 0, .BEHIND. ) ;
#315 = PERSON_AND_ORGANIZATION ( #164, #310 ) ;
#316 = LOCAL_TIME ( 10, 33, 16.00000000000000000, #340 ) ;
#317 = ORIENTED_EDGE ( 'NONE', *, *, #186, .F. ) ;
#318 = EDGE_CURVE ( 'NONE', #321, #117, #60, .T. ) ;
#319 = ADVANCED_FACE ( 'NONE', ( #293 ), #235, .T. ) ;
#320 = DATE_AND_TIME ( #344, #183 ) ;
#321 = VERTEX_POINT ( 'NONE', #237 ) ;
#322 = DIRECTION ( 'NONE',  ( 0.0000000000000000000, -6.123233995732582608E-17, -1.000000000000000000 ) ) ;
#323 = CARTESIAN_POINT ( 'NONE',  ( 5.000000000000000000, -8.659560562349064226E-16, -7.071067811865514585 ) ) ;
#324 = CC_DESIGN_PERSON_AND_ORGANIZATION_ASSIGNMENT ( #38, #151, ( #74 ) ) ;
#325 = APPROVAL_PERSON_ORGANIZATION ( #140, #249, #124 ) ;
#326 = COORDINATED_UNIVERSAL_TIME_OFFSET ( 5, 0, .BEHIND. ) ;
#327 = APPROVAL ( #21, 'UNSPECIFIED' ) ;
#328 = ORIENTED_EDGE ( 'NONE', *, *, #144, .F. ) ;
#329 = APPROVAL_STATUS ( 'not_yet_approved' ) ;
#330 = DATE_TIME_ROLE ( 'creation_date' ) ;
#331 =( NAMED_UNIT ( * ) SI_UNIT ( $, .STERADIAN. ) SOLID_ANGLE_UNIT ( ) );
#332 = APPROVAL_DATE_TIME ( #98, #220 ) ;
#333 = ORIENTED_EDGE ( 'NONE', *, *, #105, .F. ) ;
#334 = CC_DESIGN_DATE_AND_TIME_ASSIGNMENT ( #141, #330, ( #233 ) ) ;
#335 = CALENDAR_DATE ( 2020, 29, 10 ) ;
#336 = APPROVAL_DATE_TIME ( #136, #209 ) ;
#337 = APPROVAL_ROLE ( '' ) ;
#338 = VERTEX_POINT ( 'NONE', #275 ) ;
#339 =( NAMED_UNIT ( * ) PLANE_ANGLE_UNIT ( ) SI_UNIT ( $, .RADIAN. ) );
#340 = COORDINATED_UNIVERSAL_TIME_OFFSET ( 5, 0, .BEHIND. ) ;
#341 = CARTESIAN_POINT ( 'NONE',  ( 5.000000000000000000, -8.659560562349064226E-16, -7.071067811865514585 ) ) ;
#342 = EDGE_LOOP ( 'NONE', ( #267, #347, #33, #126 ) ) ;
#343 = CC_DESIGN_DATE_AND_TIME_ASSIGNMENT ( #167, #130, ( #26 ) ) ;
#344 = CALENDAR_DATE ( 2020, 29, 10 ) ;
#345 = AXIS2_PLACEMENT_3D ( 'NONE', #215, #50, #96 ) ;
#346 = PERSON_AND_ORGANIZATION ( #71, #201 ) ;
#347 = ORIENTED_EDGE ( 'NONE', *, *, #166, .F. ) ;
#348 = DIRECTION ( 'NONE',  ( -1.000000000000000000, -0.0000000000000000000, -0.0000000000000000000 ) ) ;
#349 = SHAPE_DEFINITION_REPRESENTATION ( #42, #148 ) ;
#350 = VECTOR ( 'NONE', #348, 1000.000000000000000 ) ;
#351 = CARTESIAN_POINT ( 'NONE',  ( -5.000000000000000000, 7.071067811865433761, -1.734723475976807094E-15 ) ) ;
#352 = APPROVAL ( #355, 'UNSPECIFIED' ) ;
#353 = CARTESIAN_POINT ( 'NONE',  ( 5.000000000000000000, 0.0000000000000000000, 7.071067811865514585 ) ) ;
#354 = CALENDAR_DATE ( 2020, 29, 10 ) ;
#355 = APPROVAL_STATUS ( 'not_yet_approved' ) ;
#356 = DIRECTION ( 'NONE',  ( 0.0000000000000000000, 0.7071067811865435759, 0.7071067811865513475 ) ) ;
#357 = APPROVAL_ROLE ( '' ) ;
#358 = LINE ( 'NONE', #119, #262 ) ;
#359 = CC_DESIGN_PERSON_AND_ORGANIZATION_ASSIGNMENT ( #315, #165, ( #26 ) ) ;
#360 = NEXT_ASSEMBLY_USAGE_OCCURRENCE ( 'NAUO1', ' ', ' ', #233, #35, $ ) ;
#361 = NEXT_ASSEMBLY_USAGE_OCCURRENCE ( 'NAUO2', ' ', ' ', #233, #35, $ ) ;
ENDSEC;
END-ISO-10303-21;
