ISO-10303-21;
HEADER;
FILE_DESCRIPTION (( 'STEP AP203' ),
    '1' );
FILE_NAME ('Web Model 34242_17664.step',
    '2021-06-28T18:38:40',
    ( '' ),
    ( '' ),
    'SwSTEP 2.0',
    'SolidWorks 2018',
    '' );
FILE_SCHEMA (( 'CONFIG_CONTROL_DESIGN' ));
ENDSEC;

DATA;
#1 = PRODUCT_DEFINITION_SHAPE ( 'NONE', 'NONE',  #151 ) ;
#2 = CALENDAR_DATE ( 2021, 28, 6 ) ;
#3 = SECURITY_CLASSIFICATION_LEVEL ( 'unclassified' ) ;
#4 = ADVANCED_FACE ( 'NONE', ( #77 ), #153, .T. ) ;
#5 = CC_DESIGN_DATE_AND_TIME_ASSIGNMENT ( #166, #143, ( #151 ) ) ;
#6 = COORDINATED_UNIVERSAL_TIME_OFFSET ( 5, 0, .BEHIND. ) ;
#7 = CLOSED_SHELL ( 'NONE', ( #74, #148, #4, #103 ) ) ;
#8 = APPROVAL_PERSON_ORGANIZATION ( #149, #117, #141 ) ;
#9 = PLANE ( 'NONE',  #23 ) ;
#10 = DIRECTION ( 'NONE',  ( 1.000000000000000000, 0.000000000000000000, -0.000000000000000000 ) ) ;
#11 = DIRECTION ( 'NONE',  ( 0.000000000000000000, 0.000000000000000000, 1.000000000000000000 ) ) ;
#12 = FACE_OUTER_BOUND ( 'NONE', #18, .T. ) ;
#13 = DIRECTION ( 'NONE',  ( 1.000000000000000000, 0.000000000000000000, 0.000000000000000000 ) ) ;
#14 =( GEOMETRIC_REPRESENTATION_CONTEXT ( 3 ) GLOBAL_UNCERTAINTY_ASSIGNED_CONTEXT ( ( #38 ) ) GLOBAL_UNIT_ASSIGNED_CONTEXT ( ( #98, #95, #156 ) ) REPRESENTATION_CONTEXT ( 'NONE', 'WORKASPACE' ) );
#15 = ORIENTED_EDGE ( 'NONE', *, *, #36, .T. ) ;
#16 = CARTESIAN_POINT ( 'NONE',  ( 12.50000000000000000, 0.000000000000000000, 0.000000000000000000 ) ) ;
#17 = LOCAL_TIME ( 14, 38, 40.00000000000000000, #19 ) ;
#18 = EDGE_LOOP ( 'NONE', ( #46, #67 ) ) ;
#19 = COORDINATED_UNIVERSAL_TIME_OFFSET ( 5, 0, .BEHIND. ) ;
#20 = DATE_AND_TIME ( #47, #147 ) ;
#21 = CARTESIAN_POINT ( 'NONE',  ( 0.000000000000000000, 0.000000000000000000, 0.000000000000000000 ) ) ;
#22 = LINE ( 'NONE', #41, #28 ) ;
#23 = AXIS2_PLACEMENT_3D ( 'NONE', #111, #44, #10 ) ;
#24 = COORDINATED_UNIVERSAL_TIME_OFFSET ( 5, 0, .BEHIND. ) ;
#25 = PERSON_AND_ORGANIZATION ( #106, #88 ) ;
#26 = ORIENTED_EDGE ( 'NONE', *, *, #128, .T. ) ;
#27 = CC_DESIGN_PERSON_AND_ORGANIZATION_ASSIGNMENT ( #173, #83, ( #157 ) ) ;
#28 = VECTOR ( 'NONE', #107, 1000.000000000000000 ) ;
#29 = EDGE_LOOP ( 'NONE', ( #120, #26, #61, #102 ) ) ;
#30 = DIRECTION ( 'NONE',  ( 1.000000000000000000, 0.000000000000000000, 0.000000000000000000 ) ) ;
#31 = DIRECTION ( 'NONE',  ( 1.000000000000000000, 0.000000000000000000, 0.000000000000000000 ) ) ;
#32 = CC_DESIGN_PERSON_AND_ORGANIZATION_ASSIGNMENT ( #50, #142, ( #135 ) ) ;
#33 = CALENDAR_DATE ( 2021, 28, 6 ) ;
#34 = CARTESIAN_POINT ( 'NONE',  ( -12.50000000000000000, 1.530808498934191521E-15, -3.109085847384396306 ) ) ;
#35 = ADVANCED_BREP_SHAPE_REPRESENTATION ( 'Web Model 34242_17664', ( #112, #81 ), #14 ) ;
#36 = EDGE_CURVE ( 'NONE', #168, #105, #22, .T. ) ;
#37 = VERTEX_POINT ( 'NONE', #34 ) ;
#38 = UNCERTAINTY_MEASURE_WITH_UNIT (LENGTH_MEASURE( 1.000000000000000082E-05 ), #98, 'distance_accuracy_value', 'NONE');
#39 =( BOUNDED_CURVE ( )  B_SPLINE_CURVE ( 3, ( #97, #123, #138, #129 ),
 .UNSPECIFIED., .F., .F. ) 
 B_SPLINE_CURVE_WITH_KNOTS ( ( 4, 4 ),
 ( 1.570796326794896558, 4.712388980384689674 ),
 .UNSPECIFIED. ) 
 CURVE ( )  GEOMETRIC_REPRESENTATION_ITEM ( )  RATIONAL_B_SPLINE_CURVE ( ( 1.000000000000000000, 0.3333333333333333703, 0.3333333333333333703, 1.000000000000000000 ) ) 
 REPRESENTATION_ITEM ( '' )  );
#40 = ORIENTED_EDGE ( 'NONE', *, *, #128, .F. ) ;
#41 = CARTESIAN_POINT ( 'NONE',  ( 12.50000000000000000, 0.000000000000000000, -3.218171694768792612 ) ) ;
#42 = CARTESIAN_POINT ( 'NONE',  ( -12.50000000000000000, 1.530808498934191521E-15, -3.109085847384396306 ) ) ;
#43 = AXIS2_PLACEMENT_3D ( 'NONE', #109, #172, #31 ) ;
#44 = DIRECTION ( 'NONE',  ( 0.000000000000000000, 0.000000000000000000, 1.000000000000000000 ) ) ;
#45 = LINE ( 'NONE', #108, #121 ) ;
#46 = ORIENTED_EDGE ( 'NONE', *, *, #104, .T. ) ;
#47 = CALENDAR_DATE ( 2021, 28, 6 ) ;
#48 = COORDINATED_UNIVERSAL_TIME_OFFSET ( 5, 0, .BEHIND. ) ;
#49 = CARTESIAN_POINT ( 'NONE',  ( 0.000000000000000000, 0.000000000000000000, -3.218171694768792612 ) ) ;
#50 = PERSON_AND_ORGANIZATION ( #106, #88 ) ;
#51 = DIRECTION ( 'NONE',  ( -0.000000000000000000, -0.000000000000000000, 1.000000000000000000 ) ) ;
#52 = SHAPE_DEFINITION_REPRESENTATION ( #1, #35 ) ;
#53 = APPROVAL_STATUS ( 'not_yet_approved' ) ;
#54 = PERSON_AND_ORGANIZATION_ROLE ( 'design_supplier' ) ;
#55 = APPROVAL_STATUS ( 'not_yet_approved' ) ;
#56 = APPROVAL_ROLE ( '' ) ;
#57 = CALENDAR_DATE ( 2021, 28, 6 ) ;
#58 = AXIS2_PLACEMENT_3D ( 'NONE', #174, #11, #30 ) ;
#59 = PERSON_AND_ORGANIZATION ( #106, #88 ) ;
#60 = FACE_OUTER_BOUND ( 'NONE', #65, .T. ) ;
#61 = ORIENTED_EDGE ( 'NONE', *, *, #82, .F. ) ;
#62 = CC_DESIGN_PERSON_AND_ORGANIZATION_ASSIGNMENT ( #101, #163, ( #151 ) ) ;
#63 =( BOUNDED_CURVE ( )  B_SPLINE_CURVE ( 3, ( #42, #79, #99, #64 ),
 .UNSPECIFIED., .F., .F. ) 
 B_SPLINE_CURVE_WITH_KNOTS ( ( 4, 4 ),
 ( 4.712388980384689674, 7.853981633974482790 ),
 .UNSPECIFIED. ) 
 CURVE ( )  GEOMETRIC_REPRESENTATION_ITEM ( )  RATIONAL_B_SPLINE_CURVE ( ( 1.000000000000000000, 0.3333333333333333703, 0.3333333333333333703, 1.000000000000000000 ) ) 
 REPRESENTATION_ITEM ( '' )  );
#64 = CARTESIAN_POINT ( 'NONE',  ( 12.50000000000000000, 0.000000000000000000, -3.109085847384396306 ) ) ;
#65 = EDGE_LOOP ( 'NONE', ( #70, #133 ) ) ;
#66 = APPLICATION_PROTOCOL_DEFINITION ( 'international standard', 'config_control_design', 1994, #116 ) ;
#67 = ORIENTED_EDGE ( 'NONE', *, *, #91, .T. ) ;
#68 = APPLICATION_CONTEXT ( 'configuration controlled 3d designs of mechanical parts and assemblies' ) ;
#69 = APPROVAL_PERSON_ORGANIZATION ( #59, #84, #56 ) ;
#70 = ORIENTED_EDGE ( 'NONE', *, *, #82, .T. ) ;
#71 = DATE_AND_TIME ( #33, #17 ) ;
#72 = COORDINATED_UNIVERSAL_TIME_OFFSET ( 5, 0, .BEHIND. ) ;
#73 = EDGE_CURVE ( 'NONE', #137, #105, #75, .T. ) ;
#74 = ADVANCED_FACE ( 'NONE', ( #80 ), #119, .T. ) ;
#75 = CIRCLE ( 'NONE', #43, 12.50000000000000000 ) ;
#76 = CC_DESIGN_APPROVAL ( #126, ( #157 ) ) ;
#77 = FACE_OUTER_BOUND ( 'NONE', #125, .T. ) ;
#78 = DIRECTION ( 'NONE',  ( 0.000000000000000000, 0.008726535498366844862, -0.9999619230641714207 ) ) ;
#79 = CARTESIAN_POINT ( 'NONE',  ( -12.50000000000001066, 25.00000000000000000, -2.890914152615603694 ) ) ;
#80 = FACE_OUTER_BOUND ( 'NONE', #29, .T. ) ;
#81 = AXIS2_PLACEMENT_3D ( 'NONE', #21, #132, #13 ) ;
#82 = EDGE_CURVE ( 'NONE', #105, #137, #115, .T. ) ;
#83 = PERSON_AND_ORGANIZATION_ROLE ( 'classification_officer' ) ;
#84 = APPROVAL ( #113, 'UNSPECIFIED' ) ;
#85 = APPROVAL_ROLE ( '' ) ;
#86 = LOCAL_TIME ( 14, 38, 40.00000000000000000, #24 ) ;
#87 = APPROVAL_DATE_TIME ( #164, #117 ) ;
#88 = ORGANIZATION ( 'UNSPECIFIED', 'UNSPECIFIED', '' ) ;
#89 = CC_DESIGN_PERSON_AND_ORGANIZATION_ASSIGNMENT ( #161, #160, ( #124 ) ) ;
#90 = ORIENTED_EDGE ( 'NONE', *, *, #73, .F. ) ;
#91 = EDGE_CURVE ( 'NONE', #37, #168, #63, .T. ) ;
#92 = DIRECTION ( 'NONE',  ( 1.000000000000000000, 0.000000000000000000, 0.000000000000000000 ) ) ;
#93 = LOCAL_TIME ( 14, 38, 40.00000000000000000, #6 ) ;
#94 = DIRECTION ( 'NONE',  ( 0.000000000000000000, 0.9999619230641713097, 0.008726535498366843127 ) ) ;
#95 =( NAMED_UNIT ( * ) PLANE_ANGLE_UNIT ( ) SI_UNIT ( $, .RADIAN. ) );
#96 = APPROVAL_PERSON_ORGANIZATION ( #150, #126, #85 ) ;
#97 = CARTESIAN_POINT ( 'NONE',  ( 12.50000000000000000, 0.000000000000000000, -3.109085847384396306 ) ) ;
#98 =( LENGTH_UNIT ( ) NAMED_UNIT ( * ) SI_UNIT ( .MILLI., .METRE. ) );
#99 = CARTESIAN_POINT ( 'NONE',  ( 12.50000000000000533, 25.00000000000000000, -2.890914152615603694 ) ) ;
#100 = DESIGN_CONTEXT ( 'detailed design', #116, 'design' ) ;
#101 = PERSON_AND_ORGANIZATION ( #106, #88 ) ;
#102 = ORIENTED_EDGE ( 'NONE', *, *, #36, .F. ) ;
#103 = ADVANCED_FACE ( 'NONE', ( #12 ), #175, .T. ) ;
#104 = EDGE_CURVE ( 'NONE', #168, #37, #39, .T. ) ;
#105 = VERTEX_POINT ( 'NONE', #16 ) ;
#106 = PERSON ( 'UNSPECIFIED', 'UNSPECIFIED', 'UNSPECIFIED', ('UNSPECIFIED'), ('UNSPECIFIED'), ('UNSPECIFIED') ) ;
#107 = DIRECTION ( 'NONE',  ( -0.000000000000000000, -0.000000000000000000, 1.000000000000000000 ) ) ;
#108 = CARTESIAN_POINT ( 'NONE',  ( -12.50000000000000000, 1.530808498934191521E-15, -3.218171694768792612 ) ) ;
#109 = CARTESIAN_POINT ( 'NONE',  ( 0.000000000000000000, 0.000000000000000000, 0.000000000000000000 ) ) ;
#110 = LOCAL_TIME ( 14, 38, 40.00000000000000000, #48 ) ;
#111 = CARTESIAN_POINT ( 'NONE',  ( 12.50000000000000000, -12.50000000000000000, 0.000000000000000000 ) ) ;
#112 = MANIFOLD_SOLID_BREP ( 'Cut-Extrude1', #7 ) ;
#113 = APPROVAL_STATUS ( 'not_yet_approved' ) ;
#114 = AXIS2_PLACEMENT_3D ( 'NONE', #154, #127, #158 ) ;
#115 = CIRCLE ( 'NONE', #58, 12.50000000000000000 ) ;
#116 = APPLICATION_CONTEXT ( 'configuration controlled 3d designs of mechanical parts and assemblies' ) ;
#117 = APPROVAL ( #55, 'UNSPECIFIED' ) ;
#118 = APPLICATION_PROTOCOL_DEFINITION ( 'international standard', 'config_control_design', 1994, #68 ) ;
#119 = CYLINDRICAL_SURFACE ( 'NONE', #114, 12.50000000000000000 ) ;
#120 = ORIENTED_EDGE ( 'NONE', *, *, #91, .F. ) ;
#121 = VECTOR ( 'NONE', #51, 1000.000000000000000 ) ;
#122 = PRODUCT_RELATED_PRODUCT_CATEGORY ( 'detail', '', ( #135 ) ) ;
#123 = CARTESIAN_POINT ( 'NONE',  ( 12.50000000000000533, -25.00000000000000000, -3.327257542153189362 ) ) ;
#124 = PRODUCT_DEFINITION_FORMATION_WITH_SPECIFIED_SOURCE ( 'ANY', '', #135, .NOT_KNOWN. ) ;
#125 = EDGE_LOOP ( 'NONE', ( #40, #145, #15, #90 ) ) ;
#126 = APPROVAL ( #53, 'UNSPECIFIED' ) ;
#127 = DIRECTION ( 'NONE',  ( -0.000000000000000000, -0.000000000000000000, 1.000000000000000000 ) ) ;
#128 = EDGE_CURVE ( 'NONE', #37, #137, #45, .T. ) ;
#129 = CARTESIAN_POINT ( 'NONE',  ( -12.50000000000000000, 1.530808498934191521E-15, -3.109085847384396306 ) ) ;
#130 = APPROVAL_DATE_TIME ( #170, #84 ) ;
#131 = MECHANICAL_CONTEXT ( 'NONE', #68, 'mechanical' ) ;
#132 = DIRECTION ( 'NONE',  ( 0.000000000000000000, 0.000000000000000000, 1.000000000000000000 ) ) ;
#133 = ORIENTED_EDGE ( 'NONE', *, *, #73, .T. ) ;
#134 = CALENDAR_DATE ( 2021, 28, 6 ) ;
#135 = PRODUCT ( 'Web Model 34242_17664', 'Web Model 34242_17664', '', ( #131 ) ) ;
#136 = CC_DESIGN_APPROVAL ( #84, ( #124 ) ) ;
#137 = VERTEX_POINT ( 'NONE', #155 ) ;
#138 = CARTESIAN_POINT ( 'NONE',  ( -12.50000000000000000, -25.00000000000000000, -3.327257542153189362 ) ) ;
#139 = CARTESIAN_POINT ( 'NONE',  ( 12.50000000000000000, 12.50000000000000000, -3.000000000000000000 ) ) ;
#140 = CARTESIAN_POINT ( 'NONE',  ( 12.50000000000000000, 0.000000000000000000, -3.109085847384396306 ) ) ;
#141 = APPROVAL_ROLE ( '' ) ;
#142 = PERSON_AND_ORGANIZATION_ROLE ( 'design_owner' ) ;
#143 = DATE_TIME_ROLE ( 'creation_date' ) ;
#144 = CC_DESIGN_PERSON_AND_ORGANIZATION_ASSIGNMENT ( #25, #54, ( #124 ) ) ;
#145 = ORIENTED_EDGE ( 'NONE', *, *, #104, .F. ) ;
#146 = AXIS2_PLACEMENT_3D ( 'NONE', #49, #152, #92 ) ;
#147 = LOCAL_TIME ( 14, 38, 40.00000000000000000, #72 ) ;
#148 = ADVANCED_FACE ( 'NONE', ( #60 ), #9, .T. ) ;
#149 = PERSON_AND_ORGANIZATION ( #106, #88 ) ;
#150 = PERSON_AND_ORGANIZATION ( #106, #88 ) ;
#151 = PRODUCT_DEFINITION ( 'UNKNOWN', '', #124, #100 ) ;
#152 = DIRECTION ( 'NONE',  ( -0.000000000000000000, -0.000000000000000000, 1.000000000000000000 ) ) ;
#153 = CYLINDRICAL_SURFACE ( 'NONE', #146, 12.50000000000000000 ) ;
#154 = CARTESIAN_POINT ( 'NONE',  ( 0.000000000000000000, 0.000000000000000000, -3.218171694768792612 ) ) ;
#155 = CARTESIAN_POINT ( 'NONE',  ( -12.50000000000000000, 1.530808498934191521E-15, 0.000000000000000000 ) ) ;
#156 =( NAMED_UNIT ( * ) SI_UNIT ( $, .STERADIAN. ) SOLID_ANGLE_UNIT ( ) );
#157 = SECURITY_CLASSIFICATION ( '', '', #3 ) ;
#158 = DIRECTION ( 'NONE',  ( 1.000000000000000000, 0.000000000000000000, 0.000000000000000000 ) ) ;
#159 = APPROVAL_DATE_TIME ( #20, #126 ) ;
#160 = PERSON_AND_ORGANIZATION_ROLE ( 'creator' ) ;
#161 = PERSON_AND_ORGANIZATION ( #106, #88 ) ;
#162 = DATE_TIME_ROLE ( 'classification_date' ) ;
#163 = PERSON_AND_ORGANIZATION_ROLE ( 'creator' ) ;
#164 = DATE_AND_TIME ( #57, #93 ) ;
#165 = CC_DESIGN_APPROVAL ( #117, ( #151 ) ) ;
#166 = DATE_AND_TIME ( #2, #110 ) ;
#167 = CC_DESIGN_SECURITY_CLASSIFICATION ( #157, ( #124 ) ) ;
#168 = VERTEX_POINT ( 'NONE', #140 ) ;
#169 = AXIS2_PLACEMENT_3D ( 'NONE', #139, #78, #94 ) ;
#170 = DATE_AND_TIME ( #134, #86 ) ;
#171 = CC_DESIGN_DATE_AND_TIME_ASSIGNMENT ( #71, #162, ( #157 ) ) ;
#172 = DIRECTION ( 'NONE',  ( 0.000000000000000000, 0.000000000000000000, 1.000000000000000000 ) ) ;
#173 = PERSON_AND_ORGANIZATION ( #106, #88 ) ;
#174 = CARTESIAN_POINT ( 'NONE',  ( 0.000000000000000000, 0.000000000000000000, 0.000000000000000000 ) ) ;
#175 = PLANE ( 'NONE',  #169 ) ;
ENDSEC;
END-ISO-10303-21;
