ISO-10303-21;
HEADER;
FILE_DESCRIPTION (( 'STEP AP203' ),
    '1' );
FILE_NAME ('step_35950.step',
    '2017-05-22T20:26:33',
    ( '' ),
    ( '' ),
    'SwSTEP 2.0',
    'SolidWorks 2016',
    '' );
FILE_SCHEMA (( 'CONFIG_CONTROL_DESIGN' ));
ENDSEC;

DATA;
#1 = CARTESIAN_POINT ( 'NONE',  ( -6.250000000000000000, -8.750000000000001800, 0.0000000000000000000 ) ) ;
#2 = DIRECTION ( 'NONE',  ( -0.0000000000000000000, -0.0000000000000000000, -1.000000000000000000 ) ) ;
#3 = PRODUCT_RELATED_PRODUCT_CATEGORY ( 'detail', '', ( #69 ) ) ;
#4 = COORDINATED_UNIVERSAL_TIME_OFFSET ( 7, 0, .BEHIND. ) ;
#5 = CC_DESIGN_SECURITY_CLASSIFICATION ( #24, ( #48 ) ) ;
#6 = APPROVAL_PERSON_ORGANIZATION ( #8, #16, #157 ) ;
#7 = CARTESIAN_POINT ( 'NONE',  ( 6.249999999999999100, -8.750000000000001800, 1.000000000000000000 ) ) ;
#8 = PERSON_AND_ORGANIZATION ( #70, #210 ) ;
#9 = DIRECTION ( 'NONE',  ( -0.0000000000000000000, -0.0000000000000000000, -1.000000000000000000 ) ) ;
#10 = DIRECTION ( 'NONE',  ( 1.000000000000000000, 0.0000000000000000000, 0.0000000000000000000 ) ) ;
#11 = DIRECTION ( 'NONE',  ( 1.000000000000000000, 1.486905836551548800E-016, -0.0000000000000000000 ) ) ;
#12 = DATE_AND_TIME ( #17, #18 ) ;
#13 = CC_DESIGN_APPROVAL ( #16, ( #24 ) ) ;
#14 = CARTESIAN_POINT ( 'NONE',  ( 6.249999999999997300, 8.749999999999998200, 0.0000000000000000000 ) ) ;
#15 = MANIFOLD_SOLID_BREP ( 'Boss-Extrude1', #175 ) ;
#16 = APPROVAL ( #118, 'UNSPECIFIED' ) ;
#17 = CALENDAR_DATE ( 2017, 22, 5 ) ;
#18 = LOCAL_TIME ( 13, 26, 33.00000000000000000, #19 ) ;
#19 = COORDINATED_UNIVERSAL_TIME_OFFSET ( 7, 0, .BEHIND. ) ;
#20 = CC_DESIGN_DATE_AND_TIME_ASSIGNMENT ( #12, #207, ( #24 ) ) ;
#21 = PERSON_AND_ORGANIZATION ( #70, #210 ) ;
#22 = DESIGN_CONTEXT ( 'detailed design', #183, 'design' ) ;
#23 = CC_DESIGN_PERSON_AND_ORGANIZATION_ASSIGNMENT ( #21, #156, ( #24 ) ) ;
#24 = SECURITY_CLASSIFICATION ( '', '', #194 ) ;
#25 = PERSON_AND_ORGANIZATION ( #70, #210 ) ;
#26 = PERSON_AND_ORGANIZATION ( #70, #210 ) ;
#27 = APPROVAL_DATE_TIME ( #30, #43 ) ;
#28 = CC_DESIGN_PERSON_AND_ORGANIZATION_ASSIGNMENT ( #25, #236, ( #48 ) ) ;
#29 = DIRECTION ( 'NONE',  ( 0.0000000000000000000, -0.0000000000000000000, -1.000000000000000000 ) ) ;
#30 = DATE_AND_TIME ( #31, #32 ) ;
#31 = CALENDAR_DATE ( 2017, 22, 5 ) ;
#32 = LOCAL_TIME ( 13, 26, 33.00000000000000000, #33 ) ;
#33 = COORDINATED_UNIVERSAL_TIME_OFFSET ( 7, 0, .BEHIND. ) ;
#34 = APPROVAL_PERSON_ORGANIZATION ( #36, #43, #162 ) ;
#35 = CC_DESIGN_PERSON_AND_ORGANIZATION_ASSIGNMENT ( #26, #159, ( #48 ) ) ;
#36 = PERSON_AND_ORGANIZATION ( #70, #210 ) ;
#37 = DATE_AND_TIME ( #39, #40 ) ;
#38 = DIRECTION ( 'NONE',  ( -0.0000000000000000000, 0.0000000000000000000, 1.000000000000000000 ) ) ;
#39 = CALENDAR_DATE ( 2017, 22, 5 ) ;
#40 = LOCAL_TIME ( 13, 26, 33.00000000000000000, #44 ) ;
#41 = CC_DESIGN_APPROVAL ( #43, ( #48 ) ) ;
#42 = VECTOR ( 'NONE', #9, 1000.000000000000000 ) ;
#43 = APPROVAL ( #164, 'UNSPECIFIED' ) ;
#44 = COORDINATED_UNIVERSAL_TIME_OFFSET ( 7, 0, .BEHIND. ) ;
#45 = PERSON_AND_ORGANIZATION ( #70, #210 ) ;
#46 = APPROVAL_DATE_TIME ( #50, #58 ) ;
#47 = CALENDAR_DATE ( 2017, 22, 5 ) ;
#48 = PRODUCT_DEFINITION_FORMATION_WITH_SPECIFIED_SOURCE ( 'ANY', '', #69, .NOT_KNOWN. ) ;
#49 = CC_DESIGN_DATE_AND_TIME_ASSIGNMENT ( #37, #171, ( #61 ) ) ;
#50 = DATE_AND_TIME ( #47, #52 ) ;
#51 = COORDINATED_UNIVERSAL_TIME_OFFSET ( 7, 0, .BEHIND. ) ;
#52 = LOCAL_TIME ( 13, 26, 33.00000000000000000, #51 ) ;
#53 = FACE_OUTER_BOUND ( 'NONE', #144, .T. ) ;
#54 = CC_DESIGN_APPROVAL ( #58, ( #61 ) ) ;
#55 = ORIENTED_EDGE ( 'NONE', *, *, #150, .F. ) ;
#56 = ORIENTED_EDGE ( 'NONE', *, *, #126, .F. ) ;
#57 = PERSON_AND_ORGANIZATION ( #70, #210 ) ;
#58 = APPROVAL ( #180, 'UNSPECIFIED' ) ;
#59 = CARTESIAN_POINT ( 'NONE',  ( -6.250000000000002700, 8.749999999999998200, 1.000000000000000000 ) ) ;
#60 = CARTESIAN_POINT ( 'NONE',  ( -6.250000000000002700, 8.749999999999998200, 0.0000000000000000000 ) ) ;
#61 = PRODUCT_DEFINITION ( 'UNKNOWN', '', #48, #22 ) ;
#62 = CARTESIAN_POINT ( 'NONE',  ( -6.250000000000000000, -8.750000000000001800, 1.000000000000000000 ) ) ;
#63 = CARTESIAN_POINT ( 'NONE',  ( -6.250000000000000000, -8.750000000000001800, 1.000000000000000000 ) ) ;
#64 = CC_DESIGN_PERSON_AND_ORGANIZATION_ASSIGNMENT ( #230, #89, ( #69 ) ) ;
#65 = DIRECTION ( 'NONE',  ( -0.0000000000000000000, -0.0000000000000000000, -1.000000000000000000 ) ) ;
#66 = AXIS2_PLACEMENT_3D ( 'NONE', #232, #78, #100 ) ;
#67 = DIRECTION ( 'NONE',  ( -1.486905836551548800E-016, 1.000000000000000000, 0.0000000000000000000 ) ) ;
#68 = PLANE ( 'NONE',  #108 ) ;
#69 = PRODUCT ( 'step_35950', 'step_35950', '', ( #173 ) ) ;
#70 = PERSON ( 'UNSPECIFIED', 'UNSPECIFIED', 'UNSPECIFIED', ('UNSPECIFIED'), ('UNSPECIFIED'), ('UNSPECIFIED') ) ;
#71 = ORIENTED_EDGE ( 'NONE', *, *, #126, .T. ) ;
#72 = PLANE ( 'NONE',  #82 ) ;
#73 = CALENDAR_DATE ( 2017, 22, 5 ) ;
#74 = ORIENTED_EDGE ( 'NONE', *, *, #178, .F. ) ;
#75 = CARTESIAN_POINT ( 'NONE',  ( 6.249999999999997300, 8.749999999999998200, 1.000000000000000000 ) ) ;
#76 = VERTEX_POINT ( 'NONE', #163 ) ;
#77 = EDGE_LOOP ( 'NONE', ( #71, #140, #84, #221 ) ) ;
#78 = DIRECTION ( 'NONE',  ( 0.0000000000000000000, 0.0000000000000000000, 1.000000000000000000 ) ) ;
#79 = DIRECTION ( 'NONE',  ( -9.912705577010325500E-017, 1.000000000000000000, -0.0000000000000000000 ) ) ;
#80 = APPROVAL_PERSON_ORGANIZATION ( #57, #58, #179 ) ;
#81 = PLANE ( 'NONE',  #213 ) ;
#82 = AXIS2_PLACEMENT_3D ( 'NONE', #63, #86, #143 ) ;
#83 = PRODUCT_DEFINITION_SHAPE ( 'NONE', 'NONE',  #61 ) ;
#84 = ORIENTED_EDGE ( 'NONE', *, *, #214, .F. ) ;
#85 = LINE ( 'NONE', #60, #169 ) ;
#86 = DIRECTION ( 'NONE',  ( 0.0000000000000000000, 1.000000000000000000, 0.0000000000000000000 ) ) ;
#87 = VERTEX_POINT ( 'NONE', #90 ) ;
#88 = CARTESIAN_POINT ( 'NONE',  ( 6.249999999999999100, -8.750000000000001800, 0.0000000000000000000 ) ) ;
#89 = PERSON_AND_ORGANIZATION_ROLE ( 'design_owner' ) ;
#90 = CARTESIAN_POINT ( 'NONE',  ( -6.250000000000002700, 8.749999999999998200, 1.000000000000000000 ) ) ;
#91 = DIRECTION ( 'NONE',  ( -0.0000000000000000000, 0.0000000000000000000, 1.000000000000000000 ) ) ;
#92 = LINE ( 'NONE', #7, #134 ) ;
#93 = ORIENTED_EDGE ( 'NONE', *, *, #225, .T. ) ;
#94 = VECTOR ( 'NONE', #130, 1000.000000000000000 ) ;
#95 = AXIS2_PLACEMENT_3D ( 'NONE', #212, #38, #209 ) ;
#96 = DIRECTION ( 'NONE',  ( 1.000000000000000000, 0.0000000000000000000, 0.0000000000000000000 ) ) ;
#97 = CARTESIAN_POINT ( 'NONE',  ( -6.250000000000002700, 8.749999999999998200, 1.000000000000000000 ) ) ;
#98 = DIRECTION ( 'NONE',  ( -9.912705577010325500E-017, 1.000000000000000000, -0.0000000000000000000 ) ) ;
#99 = CARTESIAN_POINT ( 'NONE',  ( -6.250000000000002700, 8.749999999999998200, 1.000000000000000000 ) ) ;
#100 = DIRECTION ( 'NONE',  ( 1.000000000000000000, 0.0000000000000000000, 0.0000000000000000000 ) ) ;
#101 = DIRECTION ( 'NONE',  ( -1.000000000000000000, -0.0000000000000000000, -0.0000000000000000000 ) ) ;
#102 = DIRECTION ( 'NONE',  ( 1.486905836551548800E-016, -1.000000000000000000, 0.0000000000000000000 ) ) ;
#103 = VERTEX_POINT ( 'NONE', #224 ) ;
#104 = FACE_OUTER_BOUND ( 'NONE', #197, .T. ) ;
#105 =( LENGTH_UNIT ( ) NAMED_UNIT ( * ) SI_UNIT ( .MILLI., .METRE. ) );
#106 = VECTOR ( 'NONE', #98, 1000.000000000000000 ) ;
#107 = LINE ( 'NONE', #198, #139 ) ;
#108 = AXIS2_PLACEMENT_3D ( 'NONE', #99, #193, #29 ) ;
#109 = EDGE_LOOP ( 'NONE', ( #186, #189, #184, #168 ) ) ;
#110 = AXIS2_PLACEMENT_3D ( 'NONE', #227, #11, #67 ) ;
#111 = ADVANCED_FACE ( 'NONE', ( #123 ), #161, .T. ) ;
#112 = ORIENTED_EDGE ( 'NONE', *, *, #132, .T. ) ;
#113 = LINE ( 'NONE', #14, #131 ) ;
#114 = FACE_OUTER_BOUND ( 'NONE', #77, .T. ) ;
#115 =( GEOMETRIC_REPRESENTATION_CONTEXT ( 3 ) GLOBAL_UNCERTAINTY_ASSIGNED_CONTEXT ( ( #188 ) ) GLOBAL_UNIT_ASSIGNED_CONTEXT ( ( #105, #229, #228 ) ) REPRESENTATION_CONTEXT ( 'NONE', 'WORKASPACE' ) );
#116 = LINE ( 'NONE', #211, #166 ) ;
#117 = ORIENTED_EDGE ( 'NONE', *, *, #231, .F. ) ;
#118 = APPROVAL_STATUS ( 'not_yet_approved' ) ;
#119 = VECTOR ( 'NONE', #101, 1000.000000000000000 ) ;
#120 = VECTOR ( 'NONE', #142, 1000.000000000000000 ) ;
#121 = CARTESIAN_POINT ( 'NONE',  ( 6.249999999999999100, -8.750000000000001800, 1.000000000000000000 ) ) ;
#122 = LINE ( 'NONE', #192, #106 ) ;
#123 = FACE_OUTER_BOUND ( 'NONE', #109, .T. ) ;
#124 = FACE_OUTER_BOUND ( 'NONE', #200, .T. ) ;
#125 = ADVANCED_FACE ( 'NONE', ( #53 ), #81, .F. ) ;
#126 = EDGE_CURVE ( 'NONE', #141, #103, #128, .T. ) ;
#127 = FACE_OUTER_BOUND ( 'NONE', #215, .T. ) ;
#128 = LINE ( 'NONE', #220, #119 ) ;
#129 = ADVANCED_FACE ( 'NONE', ( #124 ), #222, .F. ) ;
#130 = DIRECTION ( 'NONE',  ( -0.0000000000000000000, -0.0000000000000000000, -1.000000000000000000 ) ) ;
#131 = VECTOR ( 'NONE', #79, 1000.000000000000000 ) ;
#132 = EDGE_CURVE ( 'NONE', #76, #234, #135, .T. ) ;
#133 = LINE ( 'NONE', #170, #94 ) ;
#134 = VECTOR ( 'NONE', #2, 1000.000000000000000 ) ;
#135 = LINE ( 'NONE', #1, #155 ) ;
#136 = LINE ( 'NONE', #59, #42 ) ;
#137 = CARTESIAN_POINT ( 'NONE',  ( 6.249999999999997300, 8.749999999999998200, 1.000000000000000000 ) ) ;
#138 = LOCAL_TIME ( 13, 26, 33.00000000000000000, #4 ) ;
#139 = VECTOR ( 'NONE', #177, 1000.000000000000000 ) ;
#140 = ORIENTED_EDGE ( 'NONE', *, *, #187, .F. ) ;
#141 = VERTEX_POINT ( 'NONE', #201 ) ;
#142 = DIRECTION ( 'NONE',  ( -1.000000000000000000, -0.0000000000000000000, -0.0000000000000000000 ) ) ;
#143 = DIRECTION ( 'NONE',  ( 0.0000000000000000000, -0.0000000000000000000, 1.000000000000000000 ) ) ;
#144 = EDGE_LOOP ( 'NONE', ( #203, #74, #55, #199 ) ) ;
#145 = ORIENTED_EDGE ( 'NONE', *, *, #195, .F. ) ;
#146 = PLANE ( 'NONE',  #110 ) ;
#147 = CARTESIAN_POINT ( 'NONE',  ( -6.250000000000000000, -8.750000000000001800, 1.000000000000000000 ) ) ;
#148 = DIRECTION ( 'NONE',  ( 9.912705577010325500E-017, -1.000000000000000000, 0.0000000000000000000 ) ) ;
#149 = DATE_AND_TIME ( #73, #138 ) ;
#150 = EDGE_CURVE ( 'NONE', #174, #167, #122, .T. ) ;
#151 = LINE ( 'NONE', #97, #120 ) ;
#152 = APPLICATION_PROTOCOL_DEFINITION ( 'international standard', 'config_control_design', 1994, #206 ) ;
#153 = DIRECTION ( 'NONE',  ( -1.000000000000000000, -9.912705577010325500E-017, 0.0000000000000000000 ) ) ;
#154 = VECTOR ( 'NONE', #217, 1000.000000000000000 ) ;
#155 = VECTOR ( 'NONE', #96, 1000.000000000000000 ) ;
#156 = PERSON_AND_ORGANIZATION_ROLE ( 'classification_officer' ) ;
#157 = APPROVAL_ROLE ( '' ) ;
#158 = ADVANCED_FACE ( 'NONE', ( #127 ), #146, .F. ) ;
#159 = PERSON_AND_ORGANIZATION_ROLE ( 'creator' ) ;
#160 = APPROVAL_DATE_TIME ( #149, #16 ) ;
#161 = PLANE ( 'NONE',  #223 ) ;
#162 = APPROVAL_ROLE ( '' ) ;
#163 = CARTESIAN_POINT ( 'NONE',  ( -6.250000000000000000, -8.750000000000001800, 0.0000000000000000000 ) ) ;
#164 = APPROVAL_STATUS ( 'not_yet_approved' ) ;
#165 = CARTESIAN_POINT ( 'NONE',  ( 0.0000000000000000000, 0.0000000000000000000, 1.000000000000000000 ) ) ;
#166 = VECTOR ( 'NONE', #65, 1000.000000000000000 ) ;
#167 = VERTEX_POINT ( 'NONE', #75 ) ;
#168 = ORIENTED_EDGE ( 'NONE', *, *, #214, .T. ) ;
#169 = VECTOR ( 'NONE', #102, 1000.000000000000000 ) ;
#170 = CARTESIAN_POINT ( 'NONE',  ( 6.249999999999997300, 8.749999999999998200, 1.000000000000000000 ) ) ;
#171 = DATE_TIME_ROLE ( 'creation_date' ) ;
#172 = CC_DESIGN_PERSON_AND_ORGANIZATION_ASSIGNMENT ( #45, #176, ( #61 ) ) ;
#173 = MECHANICAL_CONTEXT ( 'NONE', #206, 'mechanical' ) ;
#174 = VERTEX_POINT ( 'NONE', #121 ) ;
#175 = CLOSED_SHELL ( 'NONE', ( #158, #208, #125, #205, #111, #129 ) ) ;
#176 = PERSON_AND_ORGANIZATION_ROLE ( 'creator' ) ;
#177 = DIRECTION ( 'NONE',  ( 1.486905836551548800E-016, -1.000000000000000000, 0.0000000000000000000 ) ) ;
#178 = EDGE_CURVE ( 'NONE', #167, #141, #133, .T. ) ;
#179 = APPROVAL_ROLE ( '' ) ;
#180 = APPROVAL_STATUS ( 'not_yet_approved' ) ;
#181 = APPLICATION_PROTOCOL_DEFINITION ( 'international standard', 'config_control_design', 1994, #183 ) ;
#182 = EDGE_CURVE ( 'NONE', #87, #202, #107, .T. ) ;
#183 = APPLICATION_CONTEXT ( 'configuration controlled 3d designs of mechanical parts and assemblies' ) ;
#184 = ORIENTED_EDGE ( 'NONE', *, *, #150, .T. ) ;
#185 = ORIENTED_EDGE ( 'NONE', *, *, #231, .T. ) ;
#186 = ORIENTED_EDGE ( 'NONE', *, *, #182, .T. ) ;
#187 = EDGE_CURVE ( 'NONE', #87, #103, #136, .T. ) ;
#188 = UNCERTAINTY_MEASURE_WITH_UNIT (LENGTH_MEASURE( 1.000000000000000100E-005 ), #105, 'distance_accuracy_value', 'NONE');
#189 = ORIENTED_EDGE ( 'NONE', *, *, #233, .T. ) ;
#190 = EDGE_CURVE ( 'NONE', #174, #234, #92, .T. ) ;
#191 = ORIENTED_EDGE ( 'NONE', *, *, #225, .F. ) ;
#192 = CARTESIAN_POINT ( 'NONE',  ( 6.249999999999997300, 8.749999999999998200, 1.000000000000000000 ) ) ;
#193 = DIRECTION ( 'NONE',  ( 0.0000000000000000000, -1.000000000000000000, 0.0000000000000000000 ) ) ;
#194 = SECURITY_CLASSIFICATION_LEVEL ( 'unclassified' ) ;
#195 = EDGE_CURVE ( 'NONE', #234, #141, #113, .T. ) ;
#196 = ORIENTED_EDGE ( 'NONE', *, *, #132, .F. ) ;
#197 = EDGE_LOOP ( 'NONE', ( #112, #237, #216, #185 ) ) ;
#198 = CARTESIAN_POINT ( 'NONE',  ( -6.250000000000002700, 8.749999999999998200, 1.000000000000000000 ) ) ;
#199 = ORIENTED_EDGE ( 'NONE', *, *, #190, .T. ) ;
#200 = EDGE_LOOP ( 'NONE', ( #191, #56, #145, #196 ) ) ;
#201 = CARTESIAN_POINT ( 'NONE',  ( 6.249999999999997300, 8.749999999999998200, 0.0000000000000000000 ) ) ;
#202 = VERTEX_POINT ( 'NONE', #62 ) ;
#203 = ORIENTED_EDGE ( 'NONE', *, *, #195, .T. ) ;
#204 = LINE ( 'NONE', #147, #154 ) ;
#205 = ADVANCED_FACE ( 'NONE', ( #114 ), #68, .F. ) ;
#206 = APPLICATION_CONTEXT ( 'configuration controlled 3d designs of mechanical parts and assemblies' ) ;
#207 = DATE_TIME_ROLE ( 'classification_date' ) ;
#208 = ADVANCED_FACE ( 'NONE', ( #104 ), #72, .F. ) ;
#209 = DIRECTION ( 'NONE',  ( 1.000000000000000000, 0.0000000000000000000, 0.0000000000000000000 ) ) ;
#210 = ORGANIZATION ( 'UNSPECIFIED', 'UNSPECIFIED', '' ) ;
#211 = CARTESIAN_POINT ( 'NONE',  ( -6.250000000000000000, -8.750000000000001800, 1.000000000000000000 ) ) ;
#212 = CARTESIAN_POINT ( 'NONE',  ( 0.0000000000000000000, 0.0000000000000000000, 0.0000000000000000000 ) ) ;
#213 = AXIS2_PLACEMENT_3D ( 'NONE', #137, #153, #148 ) ;
#214 = EDGE_CURVE ( 'NONE', #167, #87, #151, .T. ) ;
#215 = EDGE_LOOP ( 'NONE', ( #93, #117, #219, #235 ) ) ;
#216 = ORIENTED_EDGE ( 'NONE', *, *, #233, .F. ) ;
#217 = DIRECTION ( 'NONE',  ( 1.000000000000000000, 0.0000000000000000000, 0.0000000000000000000 ) ) ;
#218 = ADVANCED_BREP_SHAPE_REPRESENTATION ( 'step_35950', ( #15, #66 ), #115 ) ;
#219 = ORIENTED_EDGE ( 'NONE', *, *, #182, .F. ) ;
#220 = CARTESIAN_POINT ( 'NONE',  ( -6.250000000000002700, 8.749999999999998200, 0.0000000000000000000 ) ) ;
#221 = ORIENTED_EDGE ( 'NONE', *, *, #178, .T. ) ;
#222 = PLANE ( 'NONE',  #95 ) ;
#223 = AXIS2_PLACEMENT_3D ( 'NONE', #165, #91, #10 ) ;
#224 = CARTESIAN_POINT ( 'NONE',  ( -6.250000000000002700, 8.749999999999998200, 0.0000000000000000000 ) ) ;
#225 = EDGE_CURVE ( 'NONE', #103, #76, #85, .T. ) ;
#226 = SHAPE_DEFINITION_REPRESENTATION ( #83, #218 ) ;
#227 = CARTESIAN_POINT ( 'NONE',  ( -6.250000000000002700, 8.749999999999998200, 1.000000000000000000 ) ) ;
#228 =( NAMED_UNIT ( * ) SI_UNIT ( $, .STERADIAN. ) SOLID_ANGLE_UNIT ( ) );
#229 =( NAMED_UNIT ( * ) PLANE_ANGLE_UNIT ( ) SI_UNIT ( $, .RADIAN. ) );
#230 = PERSON_AND_ORGANIZATION ( #70, #210 ) ;
#231 = EDGE_CURVE ( 'NONE', #202, #76, #116, .T. ) ;
#232 = CARTESIAN_POINT ( 'NONE',  ( 0.0000000000000000000, 0.0000000000000000000, 0.0000000000000000000 ) ) ;
#233 = EDGE_CURVE ( 'NONE', #202, #174, #204, .T. ) ;
#234 = VERTEX_POINT ( 'NONE', #88 ) ;
#235 = ORIENTED_EDGE ( 'NONE', *, *, #187, .T. ) ;
#236 = PERSON_AND_ORGANIZATION_ROLE ( 'design_supplier' ) ;
#237 = ORIENTED_EDGE ( 'NONE', *, *, #190, .F. ) ;
ENDSEC;
END-ISO-10303-21;
