ISO-10303-21;
HEADER;
FILE_DESCRIPTION (( 'STEP AP203' ),
    '1' );
FILE_NAME ('Web Model 14964_14990.step',
    '2020-07-27T18:43:24',
    ( '' ),
    ( '' ),
    'SwSTEP 2.0',
    'SolidWorks 2018',
    '' );
FILE_SCHEMA (( 'CONFIG_CONTROL_DESIGN' ));
ENDSEC;

DATA;
#1 = CARTESIAN_POINT ( 'NONE',  ( 2.000000000000000000, 0.0000000000000000000, 0.0000000000000000000 ) ) ;
#2 = PERSON_AND_ORGANIZATION ( #151, #85 ) ;
#3 = AXIS2_PLACEMENT_3D ( 'NONE', #17, #56, #164 ) ;
#4 = DIRECTION ( 'NONE',  ( 1.000000000000000000, 0.0000000000000000000, 0.0000000000000000000 ) ) ;
#5 = DIRECTION ( 'NONE',  ( 0.0000000000000000000, 0.0000000000000000000, 1.000000000000000000 ) ) ;
#6 = CARTESIAN_POINT ( 'NONE',  ( 2.000000000000000000, 0.0000000000000000000, 0.0000000000000000000 ) ) ;
#7 = DIRECTION ( 'NONE',  ( 1.000000000000000000, 0.0000000000000000000, 0.0000000000000000000 ) ) ;
#8 = AXIS2_PLACEMENT_3D ( 'NONE', #1, #66, #5 ) ;
#9 = APPROVAL_DATE_TIME ( #60, #24 ) ;
#10 = CALENDAR_DATE ( 2020, 27, 7 ) ;
#11 = CC_DESIGN_PERSON_AND_ORGANIZATION_ASSIGNMENT ( #13, #144, ( #172 ) ) ;
#12 = DATE_AND_TIME ( #115, #76 ) ;
#13 = PERSON_AND_ORGANIZATION ( #151, #85 ) ;
#14 = AXIS2_PLACEMENT_3D ( 'NONE', #32, #51, #120 ) ;
#15 = DIRECTION ( 'NONE',  ( 0.0000000000000000000, 0.0000000000000000000, -1.000000000000000000 ) ) ;
#16 = COORDINATED_UNIVERSAL_TIME_OFFSET ( 5, 0, .BEHIND. ) ;
#17 = CARTESIAN_POINT ( 'NONE',  ( -2.000000000000000000, 0.0000000000000000000, 0.0000000000000000000 ) ) ;
#18 = CARTESIAN_POINT ( 'NONE',  ( -2.000000000000000000, 0.0000000000000000000, 0.0000000000000000000 ) ) ;
#19 = VECTOR ( 'NONE', #34, 1000.000000000000000 ) ;
#20 = PERSON_AND_ORGANIZATION_ROLE ( 'creator' ) ;
#21 = CC_DESIGN_PERSON_AND_ORGANIZATION_ASSIGNMENT ( #142, #57, ( #50 ) ) ;
#22 = MANIFOLD_SOLID_BREP ( 'Boss-Extrude1', #105 ) ;
#23 = ORIENTED_EDGE ( 'NONE', *, *, #165, .T. ) ;
#24 = APPROVAL ( #37, 'UNSPECIFIED' ) ;
#25 = ADVANCED_FACE ( 'NONE', ( #72 ), #33, .T. ) ;
#26 = EDGE_LOOP ( 'NONE', ( #30, #45 ) ) ;
#27 = LOCAL_TIME ( 14, 43, 24.00000000000000000, #101 ) ;
#28 = CYLINDRICAL_SURFACE ( 'NONE', #48, 12.50000000000000000 ) ;
#29 = DIRECTION ( 'NONE',  ( -1.000000000000000000, -0.0000000000000000000, -0.0000000000000000000 ) ) ;
#30 = ORIENTED_EDGE ( 'NONE', *, *, #154, .F. ) ;
#31 = DIRECTION ( 'NONE',  ( 0.0000000000000000000, 0.0000000000000000000, 1.000000000000000000 ) ) ;
#32 = CARTESIAN_POINT ( 'NONE',  ( -2.000000000000000000, 0.0000000000000000000, 0.0000000000000000000 ) ) ;
#33 = PLANE ( 'NONE',  #55 ) ;
#34 = DIRECTION ( 'NONE',  ( -1.000000000000000000, -0.0000000000000000000, -0.0000000000000000000 ) ) ;
#35 = DATE_AND_TIME ( #93, #27 ) ;
#36 = EDGE_LOOP ( 'NONE', ( #127, #23 ) ) ;
#37 = APPROVAL_STATUS ( 'not_yet_approved' ) ;
#38 = APPROVAL_STATUS ( 'not_yet_approved' ) ;
#39 = CC_DESIGN_APPROVAL ( #74, ( #50 ) ) ;
#40 = DATE_TIME_ROLE ( 'creation_date' ) ;
#41 = APPROVAL_DATE_TIME ( #109, #114 ) ;
#42 = APPROVAL_STATUS ( 'not_yet_approved' ) ;
#43 = APPROVAL_PERSON_ORGANIZATION ( #143, #114, #168 ) ;
#44 = APPROVAL_PERSON_ORGANIZATION ( #153, #24, #111 ) ;
#45 = ORIENTED_EDGE ( 'NONE', *, *, #116, .F. ) ;
#46 = EDGE_CURVE ( 'NONE', #69, #97, #136, .T. ) ;
#47 = VERTEX_POINT ( 'NONE', #163 ) ;
#48 = AXIS2_PLACEMENT_3D ( 'NONE', #130, #54, #133 ) ;
#49 = DESIGN_CONTEXT ( 'detailed design', #134, 'design' ) ;
#50 = SECURITY_CLASSIFICATION ( '', '', #121 ) ;
#51 = DIRECTION ( 'NONE',  ( 1.000000000000000000, 0.0000000000000000000, 0.0000000000000000000 ) ) ;
#52 = COORDINATED_UNIVERSAL_TIME_OFFSET ( 5, 0, .BEHIND. ) ;
#53 = VERTEX_POINT ( 'NONE', #140 ) ;
#54 = DIRECTION ( 'NONE',  ( -1.000000000000000000, -0.0000000000000000000, -0.0000000000000000000 ) ) ;
#55 = AXIS2_PLACEMENT_3D ( 'NONE', #91, #150, #78 ) ;
#56 = DIRECTION ( 'NONE',  ( 1.000000000000000000, 0.0000000000000000000, 0.0000000000000000000 ) ) ;
#57 = PERSON_AND_ORGANIZATION_ROLE ( 'classification_officer' ) ;
#58 = ORIENTED_EDGE ( 'NONE', *, *, #46, .T. ) ;
#59 = AXIS2_PLACEMENT_3D ( 'NONE', #65, #31, #161 ) ;
#60 = DATE_AND_TIME ( #10, #129 ) ;
#61 = ORIENTED_EDGE ( 'NONE', *, *, #46, .F. ) ;
#62 = ORIENTED_EDGE ( 'NONE', *, *, #64, .T. ) ;
#63 = AXIS2_PLACEMENT_3D ( 'NONE', #6, #7, #107 ) ;
#64 = EDGE_CURVE ( 'NONE', #53, #47, #77, .T. ) ;
#65 = CARTESIAN_POINT ( 'NONE',  ( 0.0000000000000000000, 0.0000000000000000000, 0.0000000000000000000 ) ) ;
#66 = DIRECTION ( 'NONE',  ( -1.000000000000000000, -0.0000000000000000000, -0.0000000000000000000 ) ) ;
#67 = CC_DESIGN_PERSON_AND_ORGANIZATION_ASSIGNMENT ( #2, #131, ( #71 ) ) ;
#68 =( LENGTH_UNIT ( ) NAMED_UNIT ( * ) SI_UNIT ( .MILLI., .METRE. ) );
#69 = VERTEX_POINT ( 'NONE', #92 ) ;
#70 = CARTESIAN_POINT ( 'NONE',  ( 2.000000000000000000, 0.0000000000000000000, 0.0000000000000000000 ) ) ;
#71 = PRODUCT ( 'Web Model 14964_14990', 'Web Model 14964_14990', '', ( #118 ) ) ;
#72 = FACE_OUTER_BOUND ( 'NONE', #36, .T. ) ;
#73 = CC_DESIGN_SECURITY_CLASSIFICATION ( #50, ( #90 ) ) ;
#74 = APPROVAL ( #38, 'UNSPECIFIED' ) ;
#75 = ADVANCED_BREP_SHAPE_REPRESENTATION ( 'Web Model 14964_14990', ( #22, #59 ), #112 ) ;
#76 = LOCAL_TIME ( 14, 43, 24.00000000000000000, #52 ) ;
#77 = LINE ( 'NONE', #94, #166 ) ;
#78 = DIRECTION ( 'NONE',  ( 0.0000000000000000000, 0.0000000000000000000, -1.000000000000000000 ) ) ;
#79 = COORDINATED_UNIVERSAL_TIME_OFFSET ( 5, 0, .BEHIND. ) ;
#80 = EDGE_LOOP ( 'NONE', ( #61, #169, #62, #158 ) ) ;
#81 = APPLICATION_PROTOCOL_DEFINITION ( 'international standard', 'config_control_design', 1994, #82 ) ;
#82 = APPLICATION_CONTEXT ( 'configuration controlled 3d designs of mechanical parts and assemblies' ) ;
#83 = APPLICATION_PROTOCOL_DEFINITION ( 'international standard', 'config_control_design', 1994, #134 ) ;
#84 = APPROVAL_ROLE ( '' ) ;
#85 = ORGANIZATION ( 'UNSPECIFIED', 'UNSPECIFIED', '' ) ;
#86 = ADVANCED_FACE ( 'NONE', ( #149 ), #156, .T. ) ;
#87 = CC_DESIGN_DATE_AND_TIME_ASSIGNMENT ( #123, #95, ( #50 ) ) ;
#88 = APPROVAL_DATE_TIME ( #12, #74 ) ;
#89 = SHAPE_DEFINITION_REPRESENTATION ( #145, #75 ) ;
#90 = PRODUCT_DEFINITION_FORMATION_WITH_SPECIFIED_SOURCE ( 'ANY', '', #71, .NOT_KNOWN. ) ;
#91 = CARTESIAN_POINT ( 'NONE',  ( 2.000000000000000000, 0.0000000000000000000, 0.0000000000000000000 ) ) ;
#92 = CARTESIAN_POINT ( 'NONE',  ( 2.000000000000000000, 1.530808498934191521E-15, -12.50000000000000000 ) ) ;
#93 = CALENDAR_DATE ( 2020, 27, 7 ) ;
#94 = CARTESIAN_POINT ( 'NONE',  ( 2.000000000000000000, 0.0000000000000000000, 12.50000000000000000 ) ) ;
#95 = DATE_TIME_ROLE ( 'classification_date' ) ;
#96 = CALENDAR_DATE ( 2020, 27, 7 ) ;
#97 = VERTEX_POINT ( 'NONE', #106 ) ;
#98 = ADVANCED_FACE ( 'NONE', ( #124 ), #28, .T. ) ;
#99 = CC_DESIGN_APPROVAL ( #114, ( #172 ) ) ;
#100 = UNCERTAINTY_MEASURE_WITH_UNIT (LENGTH_MEASURE( 1.000000000000000082E-05 ), #68, 'distance_accuracy_value', 'NONE');
#101 = COORDINATED_UNIVERSAL_TIME_OFFSET ( 5, 0, .BEHIND. ) ;
#102 = ORIENTED_EDGE ( 'NONE', *, *, #165, .F. ) ;
#103 = DIRECTION ( 'NONE',  ( 1.000000000000000000, 0.0000000000000000000, 0.0000000000000000000 ) ) ;
#104 = DIRECTION ( 'NONE',  ( 0.0000000000000000000, 0.0000000000000000000, -1.000000000000000000 ) ) ;
#105 = CLOSED_SHELL ( 'NONE', ( #86, #98, #25, #128 ) ) ;
#106 = CARTESIAN_POINT ( 'NONE',  ( -2.000000000000000000, 1.530808498934191521E-15, -12.50000000000000000 ) ) ;
#107 = DIRECTION ( 'NONE',  ( 0.0000000000000000000, 0.0000000000000000000, -1.000000000000000000 ) ) ;
#108 = CC_DESIGN_DATE_AND_TIME_ASSIGNMENT ( #35, #40, ( #172 ) ) ;
#109 = DATE_AND_TIME ( #155, #139 ) ;
#110 = CIRCLE ( 'NONE', #63, 12.50000000000000000 ) ;
#111 = APPROVAL_ROLE ( '' ) ;
#112 =( GEOMETRIC_REPRESENTATION_CONTEXT ( 3 ) GLOBAL_UNCERTAINTY_ASSIGNED_CONTEXT ( ( #100 ) ) GLOBAL_UNIT_ASSIGNED_CONTEXT ( ( #68, #152, #160 ) ) REPRESENTATION_CONTEXT ( 'NONE', 'WORKASPACE' ) );
#113 = PERSON_AND_ORGANIZATION ( #151, #85 ) ;
#114 = APPROVAL ( #42, 'UNSPECIFIED' ) ;
#115 = CALENDAR_DATE ( 2020, 27, 7 ) ;
#116 = EDGE_CURVE ( 'NONE', #97, #47, #132, .T. ) ;
#117 = CARTESIAN_POINT ( 'NONE',  ( 2.000000000000000000, 1.530808498934191521E-15, -12.50000000000000000 ) ) ;
#118 = MECHANICAL_CONTEXT ( 'NONE', #82, 'mechanical' ) ;
#119 = CC_DESIGN_APPROVAL ( #24, ( #90 ) ) ;
#120 = DIRECTION ( 'NONE',  ( 0.0000000000000000000, 0.0000000000000000000, -1.000000000000000000 ) ) ;
#121 = SECURITY_CLASSIFICATION_LEVEL ( 'unclassified' ) ;
#122 = PERSON_AND_ORGANIZATION_ROLE ( 'design_supplier' ) ;
#123 = DATE_AND_TIME ( #96, #170 ) ;
#124 = FACE_OUTER_BOUND ( 'NONE', #80, .T. ) ;
#125 = CC_DESIGN_PERSON_AND_ORGANIZATION_ASSIGNMENT ( #148, #122, ( #90 ) ) ;
#126 = PRODUCT_RELATED_PRODUCT_CATEGORY ( 'detail', '', ( #71 ) ) ;
#127 = ORIENTED_EDGE ( 'NONE', *, *, #147, .T. ) ;
#128 = ADVANCED_FACE ( 'NONE', ( #159 ), #138, .F. ) ;
#129 = LOCAL_TIME ( 14, 43, 24.00000000000000000, #16 ) ;
#130 = CARTESIAN_POINT ( 'NONE',  ( 2.000000000000000000, 0.0000000000000000000, 0.0000000000000000000 ) ) ;
#131 = PERSON_AND_ORGANIZATION_ROLE ( 'design_owner' ) ;
#132 = CIRCLE ( 'NONE', #157, 12.50000000000000000 ) ;
#133 = DIRECTION ( 'NONE',  ( 0.0000000000000000000, 0.0000000000000000000, 1.000000000000000000 ) ) ;
#134 = APPLICATION_CONTEXT ( 'configuration controlled 3d designs of mechanical parts and assemblies' ) ;
#135 = APPROVAL_PERSON_ORGANIZATION ( #113, #74, #84 ) ;
#136 = LINE ( 'NONE', #117, #19 ) ;
#137 = ORIENTED_EDGE ( 'NONE', *, *, #116, .T. ) ;
#138 = PLANE ( 'NONE',  #14 ) ;
#139 = LOCAL_TIME ( 14, 43, 24.00000000000000000, #173 ) ;
#140 = CARTESIAN_POINT ( 'NONE',  ( 2.000000000000000000, 0.0000000000000000000, 12.50000000000000000 ) ) ;
#141 = CIRCLE ( 'NONE', #167, 12.50000000000000000 ) ;
#142 = PERSON_AND_ORGANIZATION ( #151, #85 ) ;
#143 = PERSON_AND_ORGANIZATION ( #151, #85 ) ;
#144 = PERSON_AND_ORGANIZATION_ROLE ( 'creator' ) ;
#145 = PRODUCT_DEFINITION_SHAPE ( 'NONE', 'NONE',  #172 ) ;
#146 = CC_DESIGN_PERSON_AND_ORGANIZATION_ASSIGNMENT ( #174, #20, ( #90 ) ) ;
#147 = EDGE_CURVE ( 'NONE', #53, #69, #141, .T. ) ;
#148 = PERSON_AND_ORGANIZATION ( #151, #85 ) ;
#149 = FACE_OUTER_BOUND ( 'NONE', #175, .T. ) ;
#150 = DIRECTION ( 'NONE',  ( 1.000000000000000000, 0.0000000000000000000, 0.0000000000000000000 ) ) ;
#151 = PERSON ( 'UNSPECIFIED', 'UNSPECIFIED', 'UNSPECIFIED', ('UNSPECIFIED'), ('UNSPECIFIED'), ('UNSPECIFIED') ) ;
#152 =( NAMED_UNIT ( * ) PLANE_ANGLE_UNIT ( ) SI_UNIT ( $, .RADIAN. ) );
#153 = PERSON_AND_ORGANIZATION ( #151, #85 ) ;
#154 = EDGE_CURVE ( 'NONE', #47, #97, #171, .T. ) ;
#155 = CALENDAR_DATE ( 2020, 27, 7 ) ;
#156 = CYLINDRICAL_SURFACE ( 'NONE', #8, 12.50000000000000000 ) ;
#157 = AXIS2_PLACEMENT_3D ( 'NONE', #18, #4, #15 ) ;
#158 = ORIENTED_EDGE ( 'NONE', *, *, #154, .T. ) ;
#159 = FACE_OUTER_BOUND ( 'NONE', #26, .T. ) ;
#160 =( NAMED_UNIT ( * ) SI_UNIT ( $, .STERADIAN. ) SOLID_ANGLE_UNIT ( ) );
#161 = DIRECTION ( 'NONE',  ( 1.000000000000000000, 0.0000000000000000000, 0.0000000000000000000 ) ) ;
#162 = ORIENTED_EDGE ( 'NONE', *, *, #64, .F. ) ;
#163 = CARTESIAN_POINT ( 'NONE',  ( -2.000000000000000000, 0.0000000000000000000, 12.50000000000000000 ) ) ;
#164 = DIRECTION ( 'NONE',  ( 0.0000000000000000000, 0.0000000000000000000, -1.000000000000000000 ) ) ;
#165 = EDGE_CURVE ( 'NONE', #69, #53, #110, .T. ) ;
#166 = VECTOR ( 'NONE', #29, 1000.000000000000000 ) ;
#167 = AXIS2_PLACEMENT_3D ( 'NONE', #70, #103, #104 ) ;
#168 = APPROVAL_ROLE ( '' ) ;
#169 = ORIENTED_EDGE ( 'NONE', *, *, #147, .F. ) ;
#170 = LOCAL_TIME ( 14, 43, 24.00000000000000000, #79 ) ;
#171 = CIRCLE ( 'NONE', #3, 12.50000000000000000 ) ;
#172 = PRODUCT_DEFINITION ( 'UNKNOWN', '', #90, #49 ) ;
#173 = COORDINATED_UNIVERSAL_TIME_OFFSET ( 5, 0, .BEHIND. ) ;
#174 = PERSON_AND_ORGANIZATION ( #151, #85 ) ;
#175 = EDGE_LOOP ( 'NONE', ( #102, #58, #137, #162 ) ) ;
ENDSEC;
END-ISO-10303-21;
