ISO-10303-21;
HEADER;
FILE_DESCRIPTION (( 'STEP AP203' ),
    '1' );
FILE_NAME ('4319-E0W.STEP',
    '2015-06-17T20:44:56',
    ( 'admin' ),
    ( '' ),
    'SwSTEP 2.0',
    'SolidWorks 2014',
    '' );
FILE_SCHEMA (( 'CONFIG_CONTROL_DESIGN' ));
ENDSEC;

DATA;
#1 = AXIS2_PLACEMENT_3D ( 'NONE', #50, #224, #35 ) ;
#2 = CIRCLE ( 'NONE', #87, 12.46080459496939800 ) ;
#3 = ORIENTED_EDGE ( 'NONE', *, *, #293, .F. ) ;
#4 = ORIENTED_EDGE ( 'NONE', *, *, #271, .T. ) ;
#5 = DIRECTION ( 'NONE',  ( 0.0000000000000000000, 0.0000000000000000000, -1.000000000000000000 ) ) ;
#6 = ADVANCED_FACE ( 'NONE', ( #123 ), #175, .T. ) ;
#7 = VERTEX_POINT ( 'NONE', #217 ) ;
#8 = APPROVAL ( #183, 'UNSPECIFIED' ) ;
#9 = DIRECTION ( 'NONE',  ( -0.0000000000000000000, -0.0000000000000000000, 1.000000000000000000 ) ) ;
#10 = CIRCLE ( 'NONE', #116, 12.46080459496939800 ) ;
#11 = CIRCLE ( 'NONE', #209, 12.69999999999999900 ) ;
#12 = DIRECTION ( 'NONE',  ( 0.0000000000000000000, 0.0000000000000000000, -1.000000000000000000 ) ) ;
#13 = CC_DESIGN_APPROVAL ( #8, ( #247 ) ) ;
#14 = LINE ( 'NONE', #231, #260 ) ;
#15 = EDGE_LOOP ( 'NONE', ( #3, #272, #28, #290, #342 ) ) ;
#16 = PERSON_AND_ORGANIZATION_ROLE ( 'design_supplier' ) ;
#17 = CARTESIAN_POINT ( 'NONE',  ( 0.0000000000000000000, 0.0000000000000000000, 0.7749350086167089400 ) ) ;
#18 = VERTEX_POINT ( 'NONE', #165 ) ;
#19 = DIRECTION ( 'NONE',  ( 0.5993344423908280000, 0.0000000000000000000, 0.8004987358916161300 ) ) ;
#20 = AXIS2_PLACEMENT_3D ( 'NONE', #48, #313, #223 ) ;
#21 = LINE ( 'NONE', #49, #106 ) ;
#22 = APPROVAL_PERSON_ORGANIZATION ( #92, #71, #203 ) ;
#23 = CALENDAR_DATE ( 2015, 17, 6 ) ;
#24 = DIRECTION ( 'NONE',  ( -0.5993344423908335500, 0.0000000000000000000, -0.8004987358916119100 ) ) ;
#25 = ORIENTED_EDGE ( 'NONE', *, *, #318, .F. ) ;
#26 = PERSON_AND_ORGANIZATION_ROLE ( 'creator' ) ;
#27 = CALENDAR_DATE ( 2015, 17, 6 ) ;
#28 = ORIENTED_EDGE ( 'NONE', *, *, #330, .F. ) ;
#29 = CARTESIAN_POINT ( 'NONE',  ( -12.69999999999999900, 1.555301434917138400E-015, -0.7749350086167159400 ) ) ;
#30 = FACE_OUTER_BOUND ( 'NONE', #199, .T. ) ;
#31 = LOCAL_TIME ( 16, 44, 56.00000000000000000, #335 ) ;
#32 = VERTEX_POINT ( 'NONE', #337 ) ;
#33 = APPLICATION_CONTEXT ( 'configuration controlled 3d designs of mechanical parts and assemblies' ) ;
#34 = EDGE_CURVE ( 'NONE', #140, #239, #38, .T. ) ;
#35 = DIRECTION ( 'NONE',  ( 0.0000000000000000000, 0.0000000000000000000, -1.000000000000000000 ) ) ;
#36 = ADVANCED_FACE ( 'NONE', ( #111 ), #356, .T. ) ;
#37 = AXIS2_PLACEMENT_3D ( 'NONE', #115, #303, #129 ) ;
#38 = LINE ( 'NONE', #189, #179 ) ;
#39 = VERTEX_POINT ( 'NONE', #319 ) ;
#40 = CARTESIAN_POINT ( 'NONE',  ( 0.0000000000000000000, 0.0000000000000000000, -0.7749350086167159400 ) ) ;
#41 = ORIENTED_EDGE ( 'NONE', *, *, #318, .T. ) ;
#42 = DIRECTION ( 'NONE',  ( -0.0000000000000000000, -0.0000000000000000000, 1.000000000000000000 ) ) ;
#43 = DIRECTION ( 'NONE',  ( -0.0000000000000000000, -0.0000000000000000000, 1.000000000000000000 ) ) ;
#44 = DIRECTION ( 'NONE',  ( -1.000000000000000000, 0.0000000000000000000, 0.0000000000000000000 ) ) ;
#45 = ORIENTED_EDGE ( 'NONE', *, *, #70, .F. ) ;
#46 = ORIENTED_EDGE ( 'NONE', *, *, #144, .F. ) ;
#47 = DIRECTION ( 'NONE',  ( -1.000000000000000000, 0.0000000000000000000, 0.0000000000000000000 ) ) ;
#48 = CARTESIAN_POINT ( 'NONE',  ( 0.0000000000000000000, 0.0000000000000000000, -0.7749350086167159400 ) ) ;
#49 = CARTESIAN_POINT ( 'NONE',  ( 12.69999999999999900, 0.0000000000000000000, -0.7749350086167159400 ) ) ;
#50 = CARTESIAN_POINT ( 'NONE',  ( 0.0000000000000000000, 0.0000000000000000000, 42.25000000000000000 ) ) ;
#51 = DATE_AND_TIME ( #56, #108 ) ;
#52 = DIRECTION ( 'NONE',  ( -0.0000000000000000000, -0.0000000000000000000, 1.000000000000000000 ) ) ;
#53 = DIRECTION ( 'NONE',  ( -1.000000000000000000, 0.0000000000000000000, 0.0000000000000000000 ) ) ;
#54 = ORIENTED_EDGE ( 'NONE', *, *, #157, .F. ) ;
#55 = ORIENTED_EDGE ( 'NONE', *, *, #317, .F. ) ;
#56 = CALENDAR_DATE ( 2015, 17, 6 ) ;
#57 = DATE_TIME_ROLE ( 'creation_date' ) ;
#58 = MECHANICAL_CONTEXT ( 'NONE', #294, 'mechanical' ) ;
#59 = ORIENTED_EDGE ( 'NONE', *, *, #271, .F. ) ;
#60 = VERTEX_POINT ( 'NONE', #164 ) ;
#61 = CONICAL_SURFACE ( 'NONE', #289, 12.46080459496938200, 0.6426694210751037200 ) ;
#62 = VERTEX_POINT ( 'NONE', #251 ) ;
#63 = AXIS2_PLACEMENT_3D ( 'NONE', #176, #265, #68 ) ;
#64 = CONICAL_SURFACE ( 'NONE', #354, 12.69999999999999900, 0.6426694210750967300 ) ;
#65 = APPROVAL_STATUS ( 'not_yet_approved' ) ;
#66 = ADVANCED_FACE ( 'NONE', ( #30 ), #237, .T. ) ;
#67 = VERTEX_POINT ( 'NONE', #296 ) ;
#68 = DIRECTION ( 'NONE',  ( -1.224646799147353200E-016, -1.000000000000000000, 0.0000000000000000000 ) ) ;
#69 = DIRECTION ( 'NONE',  ( 1.000000000000000000, 0.0000000000000000000, 0.0000000000000000000 ) ) ;
#70 = EDGE_CURVE ( 'NONE', #292, #239, #14, .T. ) ;
#71 = APPROVAL ( #122, 'UNSPECIFIED' ) ;
#72 = SECURITY_CLASSIFICATION ( '', '', #117 ) ;
#73 = DIRECTION ( 'NONE',  ( 0.0000000000000000000, 1.000000000000000000, 0.0000000000000000000 ) ) ;
#74 = PERSON_AND_ORGANIZATION_ROLE ( 'design_owner' ) ;
#75 = EDGE_CURVE ( 'NONE', #264, #351, #349, .T. ) ;
#76 = CC_DESIGN_PERSON_AND_ORGANIZATION_ASSIGNMENT ( #310, #26, ( #247 ) ) ;
#77 = ORIENTED_EDGE ( 'NONE', *, *, #144, .T. ) ;
#78 = LOCAL_TIME ( 16, 44, 56.00000000000000000, #127 ) ;
#79 = UNCERTAINTY_MEASURE_WITH_UNIT (LENGTH_MEASURE( 1.000000000000000100E-005 ), #206, 'distance_accuracy_value', 'NONE');
#80 =( GEOMETRIC_REPRESENTATION_CONTEXT ( 3 ) GLOBAL_UNCERTAINTY_ASSIGNED_CONTEXT ( ( #79 ) ) GLOBAL_UNIT_ASSIGNED_CONTEXT ( ( #206, #364, #112 ) ) REPRESENTATION_CONTEXT ( 'NONE', 'WORKASPACE' ) );
#81 = PERSON_AND_ORGANIZATION_ROLE ( 'classification_officer' ) ;
#82 = EDGE_CURVE ( 'NONE', #60, #39, #21, .T. ) ;
#83 = AXIS2_PLACEMENT_3D ( 'NONE', #17, #91, #44 ) ;
#84 = CARTESIAN_POINT ( 'NONE',  ( 0.0000000000000000000, 0.0000000000000000000, -1.094415428587687500 ) ) ;
#85 = EDGE_LOOP ( 'NONE', ( #156, #316, #46, #285, #54 ) ) ;
#86 = ORIENTED_EDGE ( 'NONE', *, *, #340, .T. ) ;
#87 = AXIS2_PLACEMENT_3D ( 'NONE', #84, #161, #149 ) ;
#88 = LINE ( 'NONE', #225, #346 ) ;
#89 = CARTESIAN_POINT ( 'NONE',  ( -12.69999999999999900, 1.555301434917138400E-015, 0.7749350086167089400 ) ) ;
#90 = PERSON_AND_ORGANIZATION ( #174, #198 ) ;
#91 = DIRECTION ( 'NONE',  ( 0.0000000000000000000, 0.0000000000000000000, -1.000000000000000000 ) ) ;
#92 = PERSON_AND_ORGANIZATION ( #174, #198 ) ;
#93 = CC_DESIGN_APPROVAL ( #71, ( #72 ) ) ;
#94 = CIRCLE ( 'NONE', #166, 12.46080459496939800 ) ;
#95 = LOCAL_TIME ( 16, 44, 56.00000000000000000, #197 ) ;
#96 = COORDINATED_UNIVERSAL_TIME_OFFSET ( 5, 0, .BEHIND. ) ;
#97 = EDGE_CURVE ( 'NONE', #39, #18, #88, .T. ) ;
#98 = DIRECTION ( 'NONE',  ( 1.000000000000000000, 0.0000000000000000000, 0.0000000000000000000 ) ) ;
#99 = CC_DESIGN_SECURITY_CLASSIFICATION ( #72, ( #247 ) ) ;
#100 = CARTESIAN_POINT ( 'NONE',  ( 0.0000000000000000000, 0.0000000000000000000, -42.25000000000000000 ) ) ;
#101 = CARTESIAN_POINT ( 'NONE',  ( 0.0000000000000000000, 0.0000000000000000000, 1.094415428587673700 ) ) ;
#102 = CIRCLE ( 'NONE', #213, 12.46080459496938000 ) ;
#103 = CC_DESIGN_PERSON_AND_ORGANIZATION_ASSIGNMENT ( #353, #74, ( #257 ) ) ;
#104 = APPLICATION_PROTOCOL_DEFINITION ( 'international standard', 'config_control_design', 1994, #294 ) ;
#105 = DESIGN_CONTEXT ( 'detailed design', #33, 'design' ) ;
#106 = VECTOR ( 'NONE', #19, 1000.000000000000100 ) ;
#107 = APPROVAL_PERSON_ORGANIZATION ( #329, #8, #178 ) ;
#108 = LOCAL_TIME ( 16, 44, 56.00000000000000000, #210 ) ;
#109 = DIRECTION ( 'NONE',  ( -0.0000000000000000000, -0.0000000000000000000, 1.000000000000000000 ) ) ;
#110 = AXIS2_PLACEMENT_3D ( 'NONE', #126, #277, #153 ) ;
#111 = FACE_OUTER_BOUND ( 'NONE', #350, .T. ) ;
#112 =( NAMED_UNIT ( * ) SI_UNIT ( $, .STERADIAN. ) SOLID_ANGLE_UNIT ( ) );
#113 = ADVANCED_FACE ( 'NONE', ( #154 ), #64, .T. ) ;
#114 = CARTESIAN_POINT ( 'NONE',  ( 12.46080459496938000, 1.540654940560063200E-015, 1.094415428587673700 ) ) ;
#115 = CARTESIAN_POINT ( 'NONE',  ( 0.0000000000000000000, 0.0000000000000000000, 42.25000000000000000 ) ) ;
#116 = AXIS2_PLACEMENT_3D ( 'NONE', #263, #259, #363 ) ;
#117 = SECURITY_CLASSIFICATION_LEVEL ( 'unclassified' ) ;
#118 = DIRECTION ( 'NONE',  ( -1.000000000000000000, 0.0000000000000000000, 0.0000000000000000000 ) ) ;
#119 = CC_DESIGN_DATE_AND_TIME_ASSIGNMENT ( #323, #57, ( #275 ) ) ;
#120 = FACE_OUTER_BOUND ( 'NONE', #181, .T. ) ;
#121 = DATE_AND_TIME ( #23, #31 ) ;
#122 = APPROVAL_STATUS ( 'not_yet_approved' ) ;
#123 = FACE_OUTER_BOUND ( 'NONE', #15, .T. ) ;
#124 = DIRECTION ( 'NONE',  ( 0.0000000000000000000, 0.0000000000000000000, 1.000000000000000000 ) ) ;
#125 = PRODUCT_RELATED_PRODUCT_CATEGORY ( 'detail', '', ( #257 ) ) ;
#126 = CARTESIAN_POINT ( 'NONE',  ( 0.0000000000000000000, 0.0000000000000000000, 0.7749350086167089400 ) ) ;
#127 = COORDINATED_UNIVERSAL_TIME_OFFSET ( 5, 0, .BEHIND. ) ;
#128 = EDGE_LOOP ( 'NONE', ( #306, #291, #250, #141, #55 ) ) ;
#129 = DIRECTION ( 'NONE',  ( 0.0000000000000000000, 1.000000000000000000, 0.0000000000000000000 ) ) ;
#130 = ORIENTED_EDGE ( 'NONE', *, *, #322, .F. ) ;
#131 = DIRECTION ( 'NONE',  ( -1.000000000000000000, 1.224646799147353200E-016, 0.0000000000000000000 ) ) ;
#132 = CC_DESIGN_PERSON_AND_ORGANIZATION_ASSIGNMENT ( #320, #366, ( #275 ) ) ;
#133 = SPHERICAL_SURFACE ( 'NONE', #37, 45.10000000000000100 ) ;
#134 = LINE ( 'NONE', #146, #284 ) ;
#135 = DIRECTION ( 'NONE',  ( -1.000000000000000000, 0.0000000000000000000, 0.0000000000000000000 ) ) ;
#136 = CC_DESIGN_APPROVAL ( #145, ( #275 ) ) ;
#137 = EDGE_LOOP ( 'NONE', ( #172, #151, #281, #258 ) ) ;
#138 = CARTESIAN_POINT ( 'NONE',  ( 0.0000000000000000000, 0.0000000000000000000, 1.094415428587680600 ) ) ;
#139 = DIRECTION ( 'NONE',  ( 1.000000000000000000, 0.0000000000000000000, 0.0000000000000000000 ) ) ;
#140 = VERTEX_POINT ( 'NONE', #29 ) ;
#141 = ORIENTED_EDGE ( 'NONE', *, *, #70, .T. ) ;
#142 = ADVANCED_FACE ( 'NONE', ( #222 ), #61, .T. ) ;
#143 = DIRECTION ( 'NONE',  ( -0.0000000000000000000, -0.0000000000000000000, 1.000000000000000000 ) ) ;
#144 = EDGE_CURVE ( 'NONE', #60, #261, #228, .T. ) ;
#145 = APPROVAL ( #65, 'UNSPECIFIED' ) ;
#146 = CARTESIAN_POINT ( 'NONE',  ( -12.69999999999999900, 1.555301434917138400E-015, -0.7749350086167159400 ) ) ;
#147 = ORIENTED_EDGE ( 'NONE', *, *, #212, .F. ) ;
#148 = DIRECTION ( 'NONE',  ( -0.0000000000000000000, -0.0000000000000000000, 1.000000000000000000 ) ) ;
#149 = DIRECTION ( 'NONE',  ( 1.000000000000000000, 0.0000000000000000000, 0.0000000000000000000 ) ) ;
#150 = APPROVAL_DATE_TIME ( #158, #71 ) ;
#151 = ORIENTED_EDGE ( 'NONE', *, *, #157, .T. ) ;
#152 = DIRECTION ( 'NONE',  ( 0.0000000000000000000, 0.0000000000000000000, -1.000000000000000000 ) ) ;
#153 = DIRECTION ( 'NONE',  ( -1.000000000000000000, 0.0000000000000000000, 0.0000000000000000000 ) ) ;
#154 = FACE_OUTER_BOUND ( 'NONE', #85, .T. ) ;
#155 = PERSON_AND_ORGANIZATION ( #174, #198 ) ;
#156 = ORIENTED_EDGE ( 'NONE', *, *, #365, .F. ) ;
#157 = EDGE_CURVE ( 'NONE', #140, #39, #338, .T. ) ;
#158 = DATE_AND_TIME ( #159, #95 ) ;
#159 = CALENDAR_DATE ( 2015, 17, 6 ) ;
#160 = CIRCLE ( 'NONE', #173, 12.46080459496938000 ) ;
#161 = DIRECTION ( 'NONE',  ( 0.0000000000000000000, 0.0000000000000000000, -1.000000000000000000 ) ) ;
#162 = CARTESIAN_POINT ( 'NONE',  ( 0.0000000000000000000, 0.0000000000000000000, -0.7749350086167159400 ) ) ;
#163 = CARTESIAN_POINT ( 'NONE',  ( 0.0000000000000000000, 0.0000000000000000000, -0.7749350086167159400 ) ) ;
#164 = CARTESIAN_POINT ( 'NONE',  ( 12.46080459496939800, 0.0000000000000000000, -1.094415428587687500 ) ) ;
#165 = CARTESIAN_POINT ( 'NONE',  ( 12.69999999999999900, 0.0000000000000000000, 0.7749350086167089400 ) ) ;
#166 = AXIS2_PLACEMENT_3D ( 'NONE', #311, #367, #195 ) ;
#167 = APPROVAL_DATE_TIME ( #226, #8 ) ;
#168 = CIRCLE ( 'NONE', #190, 45.10000000000000900 ) ;
#169 = ORIENTED_EDGE ( 'NONE', *, *, #336, .F. ) ;
#170 = ADVANCED_FACE ( 'NONE', ( #267 ), #133, .T. ) ;
#171 = DIRECTION ( 'NONE',  ( 1.000000000000000000, 0.0000000000000000000, 0.0000000000000000000 ) ) ;
#172 = ORIENTED_EDGE ( 'NONE', *, *, #34, .F. ) ;
#173 = AXIS2_PLACEMENT_3D ( 'NONE', #266, #52, #234 ) ;
#174 = PERSON ( 'UNSPECIFIED', 'UNSPECIFIED', 'UNSPECIFIED', ('UNSPECIFIED'), ('UNSPECIFIED'), ('UNSPECIFIED') ) ;
#175 = CONICAL_SURFACE ( 'NONE', #348, 12.69999999999999900, 0.6426694210750967300 ) ;
#176 = CARTESIAN_POINT ( 'NONE',  ( 0.0000000000000000000, 0.0000000000000000000, 42.25000000000000000 ) ) ;
#177 = ORIENTED_EDGE ( 'NONE', *, *, #293, .T. ) ;
#178 = APPROVAL_ROLE ( '' ) ;
#179 = VECTOR ( 'NONE', #143, 1000.000000000000000 ) ;
#180 = AXIS2_PLACEMENT_3D ( 'NONE', #218, #148, #278 ) ;
#181 = EDGE_LOOP ( 'NONE', ( #147, #246, #229, #177 ) ) ;
#182 = CARTESIAN_POINT ( 'NONE',  ( 0.0000000000000000000, 0.0000000000000000000, -42.25000000000000000 ) ) ;
#183 = APPROVAL_STATUS ( 'not_yet_approved' ) ;
#184 = AXIS2_PLACEMENT_3D ( 'NONE', #215, #270, #235 ) ;
#185 = CYLINDRICAL_SURFACE ( 'NONE', #230, 12.69999999999999900 ) ;
#186 = DIRECTION ( 'NONE',  ( -1.000000000000000000, 0.0000000000000000000, 0.0000000000000000000 ) ) ;
#187 = EDGE_LOOP ( 'NONE', ( #216, #255, #4, #188 ) ) ;
#188 = ORIENTED_EDGE ( 'NONE', *, *, #97, .F. ) ;
#189 = CARTESIAN_POINT ( 'NONE',  ( -12.69999999999999900, 1.555301434917138400E-015, 2.850000000000000100 ) ) ;
#190 = AXIS2_PLACEMENT_3D ( 'NONE', #252, #262, #5 ) ;
#191 = CARTESIAN_POINT ( 'NONE',  ( 0.0000000000000000000, 0.0000000000000000000, 1.094415428587680600 ) ) ;
#192 = VECTOR ( 'NONE', #288, 1000.000000000000000 ) ;
#193 = CARTESIAN_POINT ( 'NONE',  ( -1.526008446202988400E-015, -12.46080459496938000, -1.094415428587684100 ) ) ;
#194 = CALENDAR_DATE ( 2015, 17, 6 ) ;
#195 = DIRECTION ( 'NONE',  ( 1.000000000000000000, 0.0000000000000000000, 0.0000000000000000000 ) ) ;
#196 = FACE_OUTER_BOUND ( 'NONE', #232, .T. ) ;
#197 = COORDINATED_UNIVERSAL_TIME_OFFSET ( 5, 0, .BEHIND. ) ;
#198 = ORGANIZATION ( 'UNSPECIFIED', 'UNSPECIFIED', '' ) ;
#199 = EDGE_LOOP ( 'NONE', ( #169, #304, #59, #45, #130 ) ) ;
#200 = CC_DESIGN_DATE_AND_TIME_ASSIGNMENT ( #51, #207, ( #72 ) ) ;
#201 = ADVANCED_FACE ( 'NONE', ( #196 ), #279, .T. ) ;
#202 = ADVANCED_BREP_SHAPE_REPRESENTATION ( '4319-E0W', ( #287, #273 ), #80 ) ;
#203 = APPROVAL_ROLE ( '' ) ;
#204 = CLOSED_SHELL ( 'NONE', ( #66, #6, #268, #326, #36, #201, #305, #170, #113, #142 ) ) ;
#205 = EDGE_CURVE ( 'NONE', #351, #18, #308, .T. ) ;
#206 =( LENGTH_UNIT ( ) NAMED_UNIT ( * ) SI_UNIT ( .MILLI., .METRE. ) );
#207 = DATE_TIME_ROLE ( 'classification_date' ) ;
#208 = DIRECTION ( 'NONE',  ( -1.224646799147353200E-016, -1.000000000000000000, 0.0000000000000000000 ) ) ;
#209 = AXIS2_PLACEMENT_3D ( 'NONE', #40, #325, #359 ) ;
#210 = COORDINATED_UNIVERSAL_TIME_OFFSET ( 5, 0, .BEHIND. ) ;
#211 = ORIENTED_EDGE ( 'NONE', *, *, #322, .T. ) ;
#212 = EDGE_CURVE ( 'NONE', #7, #32, #295, .T. ) ;
#213 = AXIS2_PLACEMENT_3D ( 'NONE', #242, #248, #327 ) ;
#214 = VERTEX_POINT ( 'NONE', #343 ) ;
#215 = CARTESIAN_POINT ( 'NONE',  ( 0.0000000000000000000, 0.0000000000000000000, 1.094415428587673700 ) ) ;
#216 = ORIENTED_EDGE ( 'NONE', *, *, #330, .T. ) ;
#217 = CARTESIAN_POINT ( 'NONE',  ( 0.0000000000000000000, 2.761578532077281500E-015, -2.849999999999998300 ) ) ;
#218 = CARTESIAN_POINT ( 'NONE',  ( 0.0000000000000000000, 0.0000000000000000000, 2.850000000000000100 ) ) ;
#219 = CARTESIAN_POINT ( 'NONE',  ( 0.0000000000000000000, 0.0000000000000000000, -1.094415428587687500 ) ) ;
#220 = CARTESIAN_POINT ( 'NONE',  ( -1.526008446202989800E-015, -12.46080459496939200, 1.094415428587677000 ) ) ;
#221 = AXIS2_PLACEMENT_3D ( 'NONE', #269, #131, #208 ) ;
#222 = FACE_OUTER_BOUND ( 'NONE', #128, .T. ) ;
#223 = DIRECTION ( 'NONE',  ( 1.000000000000000000, 0.0000000000000000000, 0.0000000000000000000 ) ) ;
#224 = DIRECTION ( 'NONE',  ( 1.000000000000000000, 0.0000000000000000000, 0.0000000000000000000 ) ) ;
#225 = CARTESIAN_POINT ( 'NONE',  ( 12.69999999999999900, 0.0000000000000000000, 2.850000000000000100 ) ) ;
#226 = DATE_AND_TIME ( #27, #78 ) ;
#227 = DIRECTION ( 'NONE',  ( -1.000000000000000000, 0.0000000000000000000, 0.0000000000000000000 ) ) ;
#228 = CIRCLE ( 'NONE', #236, 12.46080459496939800 ) ;
#229 = ORIENTED_EDGE ( 'NONE', *, *, #357, .T. ) ;
#230 = AXIS2_PLACEMENT_3D ( 'NONE', #362, #298, #139 ) ;
#231 = CARTESIAN_POINT ( 'NONE',  ( -12.46080459496938200, 0.0000000000000000000, 1.094415428587680600 ) ) ;
#232 = EDGE_LOOP ( 'NONE', ( #25, #332, #312, #86 ) ) ;
#233 = EDGE_CURVE ( 'NONE', #7, #261, #300, .T. ) ;
#234 = DIRECTION ( 'NONE',  ( -1.000000000000000000, 0.0000000000000000000, 0.0000000000000000000 ) ) ;
#235 = DIRECTION ( 'NONE',  ( -1.000000000000000000, 0.0000000000000000000, 0.0000000000000000000 ) ) ;
#236 = AXIS2_PLACEMENT_3D ( 'NONE', #219, #253, #98 ) ;
#237 = CONICAL_SURFACE ( 'NONE', #297, 12.46080459496938200, 0.6426694210751037200 ) ;
#238 = PERSON_AND_ORGANIZATION ( #174, #198 ) ;
#239 = VERTEX_POINT ( 'NONE', #89 ) ;
#240 = AXIS2_PLACEMENT_3D ( 'NONE', #352, #186, #274 ) ;
#241 = CIRCLE ( 'NONE', #221, 45.10000000000000100 ) ;
#242 = CARTESIAN_POINT ( 'NONE',  ( 0.0000000000000000000, 0.0000000000000000000, 1.094415428587673700 ) ) ;
#243 = PRODUCT_DEFINITION_SHAPE ( 'NONE', 'NONE',  #275 ) ;
#244 = AXIS2_PLACEMENT_3D ( 'NONE', #182, #47, #358 ) ;
#245 = SHAPE_DEFINITION_REPRESENTATION ( #243, #202 ) ;
#246 = ORIENTED_EDGE ( 'NONE', *, *, #233, .T. ) ;
#247 = PRODUCT_DEFINITION_FORMATION_WITH_SPECIFIED_SOURCE ( 'ANY', '', #257, .NOT_KNOWN. ) ;
#248 = DIRECTION ( 'NONE',  ( -0.0000000000000000000, -0.0000000000000000000, 1.000000000000000000 ) ) ;
#249 = CC_DESIGN_PERSON_AND_ORGANIZATION_ASSIGNMENT ( #90, #81, ( #72 ) ) ;
#250 = ORIENTED_EDGE ( 'NONE', *, *, #328, .F. ) ;
#251 = CARTESIAN_POINT ( 'NONE',  ( -12.46080459496939800, 1.540654940560064400E-015, -1.094415428587687500 ) ) ;
#252 = CARTESIAN_POINT ( 'NONE',  ( 0.0000000000000000000, 0.0000000000000000000, -42.25000000000000000 ) ) ;
#253 = DIRECTION ( 'NONE',  ( 0.0000000000000000000, 0.0000000000000000000, -1.000000000000000000 ) ) ;
#254 = DIRECTION ( 'NONE',  ( -0.5993344423908280000, 7.339730064926910800E-017, 0.8004987358916161300 ) ) ;
#255 = ORIENTED_EDGE ( 'NONE', *, *, #34, .T. ) ;
#256 = CARTESIAN_POINT ( 'NONE',  ( 0.0000000000000000000, 0.0000000000000000000, 0.0000000000000000000 ) ) ;
#257 = PRODUCT ( '4319-E0W', '4319-E0W', '', ( #58 ) ) ;
#258 = ORIENTED_EDGE ( 'NONE', *, *, #317, .T. ) ;
#259 = DIRECTION ( 'NONE',  ( 0.0000000000000000000, 0.0000000000000000000, -1.000000000000000000 ) ) ;
#260 = VECTOR ( 'NONE', #24, 1000.000000000000000 ) ;
#261 = VERTEX_POINT ( 'NONE', #193 ) ;
#262 = DIRECTION ( 'NONE',  ( 1.000000000000000000, -0.0000000000000000000, 0.0000000000000000000 ) ) ;
#263 = CARTESIAN_POINT ( 'NONE',  ( 0.0000000000000000000, 0.0000000000000000000, -1.094415428587687500 ) ) ;
#264 = VERTEX_POINT ( 'NONE', #220 ) ;
#265 = DIRECTION ( 'NONE',  ( -1.000000000000000000, 1.224646799147353200E-016, 0.0000000000000000000 ) ) ;
#266 = CARTESIAN_POINT ( 'NONE',  ( 0.0000000000000000000, 0.0000000000000000000, 1.094415428587673700 ) ) ;
#267 = FACE_OUTER_BOUND ( 'NONE', #276, .T. ) ;
#268 = ADVANCED_FACE ( 'NONE', ( #120 ), #345, .T. ) ;
#269 = CARTESIAN_POINT ( 'NONE',  ( 0.0000000000000000000, 0.0000000000000000000, -42.25000000000000000 ) ) ;
#270 = DIRECTION ( 'NONE',  ( -0.0000000000000000000, -0.0000000000000000000, 1.000000000000000000 ) ) ;
#271 = EDGE_CURVE ( 'NONE', #239, #18, #333, .T. ) ;
#272 = ORIENTED_EDGE ( 'NONE', *, *, #365, .T. ) ;
#273 = AXIS2_PLACEMENT_3D ( 'NONE', #256, #124, #347 ) ;
#274 = DIRECTION ( 'NONE',  ( 0.0000000000000000000, 1.000000000000000000, 0.0000000000000000000 ) ) ;
#275 = PRODUCT_DEFINITION ( 'UNKNOWN', '', #247, #105 ) ;
#276 = EDGE_LOOP ( 'NONE', ( #344, #355, #282, #77 ) ) ;
#277 = DIRECTION ( 'NONE',  ( 0.0000000000000000000, 0.0000000000000000000, -1.000000000000000000 ) ) ;
#278 = DIRECTION ( 'NONE',  ( 1.000000000000000000, 0.0000000000000000000, 0.0000000000000000000 ) ) ;
#279 = SPHERICAL_SURFACE ( 'NONE', #244, 45.10000000000000100 ) ;
#280 = CARTESIAN_POINT ( 'NONE',  ( 12.46080459496938200, 1.526008446202988400E-015, 1.094415428587680600 ) ) ;
#281 = ORIENTED_EDGE ( 'NONE', *, *, #97, .T. ) ;
#282 = ORIENTED_EDGE ( 'NONE', *, *, #315, .T. ) ;
#283 = APPROVAL_ROLE ( '' ) ;
#284 = VECTOR ( 'NONE', #254, 1000.000000000000100 ) ;
#285 = ORIENTED_EDGE ( 'NONE', *, *, #82, .T. ) ;
#286 = CIRCLE ( 'NONE', #110, 12.69999999999999900 ) ;
#287 = MANIFOLD_SOLID_BREP ( '4319-001-1-solid1', #204 ) ;
#288 = DIRECTION ( 'NONE',  ( 0.5993344423908335500, 7.339730064926981100E-017, -0.8004987358916119100 ) ) ;
#289 = AXIS2_PLACEMENT_3D ( 'NONE', #191, #152, #118 ) ;
#290 = ORIENTED_EDGE ( 'NONE', *, *, #82, .F. ) ;
#291 = ORIENTED_EDGE ( 'NONE', *, *, #75, .F. ) ;
#292 = VERTEX_POINT ( 'NONE', #301 ) ;
#293 = EDGE_CURVE ( 'NONE', #62, #32, #94, .T. ) ;
#294 = APPLICATION_CONTEXT ( 'configuration controlled 3d designs of mechanical parts and assemblies' ) ;
#295 = CIRCLE ( 'NONE', #1, 45.10000000000000100 ) ;
#296 = CARTESIAN_POINT ( 'NONE',  ( 0.0000000000000000000, 2.761578532077281500E-015, 2.849999999999998300 ) ) ;
#297 = AXIS2_PLACEMENT_3D ( 'NONE', #138, #12, #53 ) ;
#298 = DIRECTION ( 'NONE',  ( -0.0000000000000000000, -0.0000000000000000000, 1.000000000000000000 ) ) ;
#299 = AXIS2_PLACEMENT_3D ( 'NONE', #100, #227, #73 ) ;
#300 = CIRCLE ( 'NONE', #63, 45.10000000000000100 ) ;
#301 = CARTESIAN_POINT ( 'NONE',  ( -12.46080459496938000, 0.0000000000000000000, 1.094415428587673700 ) ) ;
#302 = CYLINDRICAL_SURFACE ( 'NONE', #180, 12.69999999999999900 ) ;
#303 = DIRECTION ( 'NONE',  ( -1.000000000000000000, 0.0000000000000000000, 0.0000000000000000000 ) ) ;
#304 = ORIENTED_EDGE ( 'NONE', *, *, #205, .T. ) ;
#305 = ADVANCED_FACE ( 'NONE', ( #341 ), #185, .T. ) ;
#306 = ORIENTED_EDGE ( 'NONE', *, *, #205, .F. ) ;
#307 = AXIS2_PLACEMENT_3D ( 'NONE', #101, #43, #135 ) ;
#308 = LINE ( 'NONE', #280, #192 ) ;
#309 = ORIENTED_EDGE ( 'NONE', *, *, #340, .F. ) ;
#310 = PERSON_AND_ORGANIZATION ( #174, #198 ) ;
#311 = CARTESIAN_POINT ( 'NONE',  ( 0.0000000000000000000, 0.0000000000000000000, -1.094415428587687500 ) ) ;
#312 = ORIENTED_EDGE ( 'NONE', *, *, #336, .T. ) ;
#313 = DIRECTION ( 'NONE',  ( -0.0000000000000000000, -0.0000000000000000000, 1.000000000000000000 ) ) ;
#314 = FACE_OUTER_BOUND ( 'NONE', #187, .T. ) ;
#315 = EDGE_CURVE ( 'NONE', #32, #60, #10, .T. ) ;
#316 = ORIENTED_EDGE ( 'NONE', *, *, #357, .F. ) ;
#317 = EDGE_CURVE ( 'NONE', #18, #239, #286, .T. ) ;
#318 = EDGE_CURVE ( 'NONE', #264, #67, #241, .T. ) ;
#319 = CARTESIAN_POINT ( 'NONE',  ( 12.69999999999999900, 0.0000000000000000000, -0.7749350086167159400 ) ) ;
#320 = PERSON_AND_ORGANIZATION ( #174, #198 ) ;
#321 = APPROVAL_PERSON_ORGANIZATION ( #238, #145, #283 ) ;
#322 = EDGE_CURVE ( 'NONE', #214, #292, #102, .T. ) ;
#323 = DATE_AND_TIME ( #194, #360 ) ;
#324 = CIRCLE ( 'NONE', #184, 12.46080459496938000 ) ;
#325 = DIRECTION ( 'NONE',  ( -0.0000000000000000000, -0.0000000000000000000, 1.000000000000000000 ) ) ;
#326 = ADVANCED_FACE ( 'NONE', ( #314 ), #302, .T. ) ;
#327 = DIRECTION ( 'NONE',  ( -1.000000000000000000, 0.0000000000000000000, 0.0000000000000000000 ) ) ;
#328 = EDGE_CURVE ( 'NONE', #292, #264, #160, .T. ) ;
#329 = PERSON_AND_ORGANIZATION ( #174, #198 ) ;
#330 = EDGE_CURVE ( 'NONE', #39, #140, #11, .T. ) ;
#331 = CC_DESIGN_PERSON_AND_ORGANIZATION_ASSIGNMENT ( #155, #16, ( #247 ) ) ;
#332 = ORIENTED_EDGE ( 'NONE', *, *, #75, .T. ) ;
#333 = CIRCLE ( 'NONE', #83, 12.69999999999999900 ) ;
#334 = APPROVAL_DATE_TIME ( #121, #145 ) ;
#335 = COORDINATED_UNIVERSAL_TIME_OFFSET ( 5, 0, .BEHIND. ) ;
#336 = EDGE_CURVE ( 'NONE', #351, #214, #324, .T. ) ;
#337 = CARTESIAN_POINT ( 'NONE',  ( 0.0000000000000000000, 12.46080459496938000, -1.094415428587684100 ) ) ;
#338 = CIRCLE ( 'NONE', #20, 12.69999999999999900 ) ;
#339 = ORIENTED_EDGE ( 'NONE', *, *, #328, .T. ) ;
#340 = EDGE_CURVE ( 'NONE', #214, #67, #168, .T. ) ;
#341 = FACE_OUTER_BOUND ( 'NONE', #137, .T. ) ;
#342 = ORIENTED_EDGE ( 'NONE', *, *, #315, .F. ) ;
#343 = CARTESIAN_POINT ( 'NONE',  ( 0.0000000000000000000, 12.46080459496939200, 1.094415428587677000 ) ) ;
#344 = ORIENTED_EDGE ( 'NONE', *, *, #233, .F. ) ;
#345 = SPHERICAL_SURFACE ( 'NONE', #240, 45.10000000000000100 ) ;
#346 = VECTOR ( 'NONE', #42, 1000.000000000000000 ) ;
#347 = DIRECTION ( 'NONE',  ( 1.000000000000000000, 0.0000000000000000000, 0.0000000000000000000 ) ) ;
#348 = AXIS2_PLACEMENT_3D ( 'NONE', #162, #9, #69 ) ;
#349 = CIRCLE ( 'NONE', #307, 12.46080459496938000 ) ;
#350 = EDGE_LOOP ( 'NONE', ( #211, #339, #41, #309 ) ) ;
#351 = VERTEX_POINT ( 'NONE', #114 ) ;
#352 = CARTESIAN_POINT ( 'NONE',  ( 0.0000000000000000000, 0.0000000000000000000, 42.25000000000000000 ) ) ;
#353 = PERSON_AND_ORGANIZATION ( #174, #198 ) ;
#354 = AXIS2_PLACEMENT_3D ( 'NONE', #163, #109, #171 ) ;
#355 = ORIENTED_EDGE ( 'NONE', *, *, #212, .T. ) ;
#356 = SPHERICAL_SURFACE ( 'NONE', #299, 45.10000000000000100 ) ;
#357 = EDGE_CURVE ( 'NONE', #261, #62, #2, .T. ) ;
#358 = DIRECTION ( 'NONE',  ( 0.0000000000000000000, 1.000000000000000000, 0.0000000000000000000 ) ) ;
#359 = DIRECTION ( 'NONE',  ( 1.000000000000000000, 0.0000000000000000000, 0.0000000000000000000 ) ) ;
#360 = LOCAL_TIME ( 16, 44, 56.00000000000000000, #96 ) ;
#361 = APPLICATION_PROTOCOL_DEFINITION ( 'international standard', 'config_control_design', 1994, #33 ) ;
#362 = CARTESIAN_POINT ( 'NONE',  ( 0.0000000000000000000, 0.0000000000000000000, 2.850000000000000100 ) ) ;
#363 = DIRECTION ( 'NONE',  ( 1.000000000000000000, 0.0000000000000000000, 0.0000000000000000000 ) ) ;
#364 =( NAMED_UNIT ( * ) PLANE_ANGLE_UNIT ( ) SI_UNIT ( $, .RADIAN. ) );
#365 = EDGE_CURVE ( 'NONE', #62, #140, #134, .T. ) ;
#366 = PERSON_AND_ORGANIZATION_ROLE ( 'creator' ) ;
#367 = DIRECTION ( 'NONE',  ( 0.0000000000000000000, 0.0000000000000000000, -1.000000000000000000 ) ) ;
ENDSEC;
END-ISO-10303-21;
