ISO-10303-21;
HEADER;
FILE_DESCRIPTION (( 'STEP AP203' ),
    '1' );
FILE_NAME ('Web Model 31411_31411.step',
    '2017-04-10T17:51:02',
    ( '' ),
    ( '' ),
    'SwSTEP 2.0',
    'SolidWorks 2016',
    '' );
FILE_SCHEMA (( 'CONFIG_CONTROL_DESIGN' ));
ENDSEC;

DATA;
#1 = CARTESIAN_POINT ( 'NONE',  ( -12.49999999999999800, 37.99999999999997900, 1.000000000000000000 ) ) ;
#2 = ADVANCED_FACE ( 'NONE', ( #54 ), #30, .F. ) ;
#3 = PERSON_AND_ORGANIZATION_ROLE ( 'classification_officer' ) ;
#4 = ORIENTED_EDGE ( 'NONE', *, *, #85, .T. ) ;
#5 = MECHANICAL_CONTEXT ( 'NONE', #237, 'mechanical' ) ;
#6 = COORDINATED_UNIVERSAL_TIME_OFFSET ( 5, 0, .BEHIND. ) ;
#7 = PRODUCT_DEFINITION_SHAPE ( 'NONE', 'NONE',  #123 ) ;
#8 = DIRECTION ( 'NONE',  ( 0.0000000000000000000, 0.0000000000000000000, 1.000000000000000000 ) ) ;
#9 = PRODUCT_DEFINITION_FORMATION_WITH_SPECIFIED_SOURCE ( 'ANY', '', #116, .NOT_KNOWN. ) ;
#10 = DIRECTION ( 'NONE',  ( 1.000000000000000000, 0.0000000000000000000, 0.0000000000000000000 ) ) ;
#11 = ADVANCED_FACE ( 'NONE', ( #67 ), #171, .F. ) ;
#12 = EDGE_CURVE ( 'NONE', #229, #235, #78, .T. ) ;
#13 = DIRECTION ( 'NONE',  ( -0.0000000000000000000, -0.0000000000000000000, -1.000000000000000000 ) ) ;
#14 = CALENDAR_DATE ( 2017, 10, 4 ) ;
#15 = CC_DESIGN_PERSON_AND_ORGANIZATION_ASSIGNMENT ( #20, #122, ( #123 ) ) ;
#16 = LOCAL_TIME ( 13, 51, 2.000000000000000000, #181 ) ;
#17 = DATE_AND_TIME ( #108, #49 ) ;
#18 = APPLICATION_PROTOCOL_DEFINITION ( 'international standard', 'config_control_design', 1994, #237 ) ;
#19 = CARTESIAN_POINT ( 'NONE',  ( 12.50000000000000200, 37.99999999999997900, 1.000000000000000000 ) ) ;
#20 = PERSON_AND_ORGANIZATION ( #166, #216 ) ;
#21 = ORIENTED_EDGE ( 'NONE', *, *, #214, .F. ) ;
#22 = LINE ( 'NONE', #104, #94 ) ;
#23 = ORIENTED_EDGE ( 'NONE', *, *, #34, .T. ) ;
#24 = PERSON_AND_ORGANIZATION ( #166, #216 ) ;
#25 = EDGE_LOOP ( 'NONE', ( #81, #157, #95, #4 ) ) ;
#26 = ADVANCED_FACE ( 'NONE', ( #234 ), #175, .F. ) ;
#27 = DIRECTION ( 'NONE',  ( 1.000000000000000000, 0.0000000000000000000, 0.0000000000000000000 ) ) ;
#28 = DIRECTION ( 'NONE',  ( 1.826024711554533900E-016, -1.000000000000000000, 0.0000000000000000000 ) ) ;
#29 = AXIS2_PLACEMENT_3D ( 'NONE', #93, #180, #137 ) ;
#30 = PLANE ( 'NONE',  #192 ) ;
#31 = LOCAL_TIME ( 13, 51, 2.000000000000000000, #6 ) ;
#32 = ORIENTED_EDGE ( 'NONE', *, *, #132, .F. ) ;
#33 = UNCERTAINTY_MEASURE_WITH_UNIT (LENGTH_MEASURE( 1.000000000000000100E-005 ), #173, 'distance_accuracy_value', 'NONE');
#34 = EDGE_CURVE ( 'NONE', #88, #68, #22, .T. ) ;
#35 = PERSON_AND_ORGANIZATION ( #166, #216 ) ;
#36 = DIRECTION ( 'NONE',  ( 0.0000000000000000000, -1.000000000000000000, 0.0000000000000000000 ) ) ;
#37 = APPROVAL_ROLE ( '' ) ;
#38 = DIRECTION ( 'NONE',  ( 1.369518533665900300E-016, -1.000000000000000000, 0.0000000000000000000 ) ) ;
#39 = PLANE ( 'NONE',  #128 ) ;
#40 = ORIENTED_EDGE ( 'NONE', *, *, #184, .T. ) ;
#41 = DIRECTION ( 'NONE',  ( 1.369518533665900300E-016, -1.000000000000000000, 0.0000000000000000000 ) ) ;
#42 = APPROVAL_PERSON_ORGANIZATION ( #206, #203, #125 ) ;
#43 = PERSON_AND_ORGANIZATION ( #166, #216 ) ;
#44 = APPROVAL_DATE_TIME ( #200, #133 ) ;
#45 = PERSON_AND_ORGANIZATION_ROLE ( 'design_owner' ) ;
#46 = VECTOR ( 'NONE', #56, 1000.000000000000000 ) ;
#47 = PERSON_AND_ORGANIZATION_ROLE ( 'design_supplier' ) ;
#48 = DATE_AND_TIME ( #217, #127 ) ;
#49 = LOCAL_TIME ( 13, 51, 2.000000000000000000, #202 ) ;
#50 = APPLICATION_PROTOCOL_DEFINITION ( 'international standard', 'config_control_design', 1994, #75 ) ;
#51 = DIRECTION ( 'NONE',  ( 0.0000000000000000000, -0.0000000000000000000, -1.000000000000000000 ) ) ;
#52 = APPROVAL_PERSON_ORGANIZATION ( #24, #133, #37 ) ;
#53 = CARTESIAN_POINT ( 'NONE',  ( -12.49999999999998900, -38.00000000000002100, 1.000000000000000000 ) ) ;
#54 = FACE_OUTER_BOUND ( 'NONE', #25, .T. ) ;
#55 = VERTEX_POINT ( 'NONE', #165 ) ;
#56 = DIRECTION ( 'NONE',  ( -0.0000000000000000000, -0.0000000000000000000, -1.000000000000000000 ) ) ;
#57 = ORIENTED_EDGE ( 'NONE', *, *, #140, .F. ) ;
#58 = ORIENTED_EDGE ( 'NONE', *, *, #69, .T. ) ;
#59 = CARTESIAN_POINT ( 'NONE',  ( -12.49999999999998900, -38.00000000000002100, 1.000000000000000000 ) ) ;
#60 = ORIENTED_EDGE ( 'NONE', *, *, #214, .T. ) ;
#61 = CARTESIAN_POINT ( 'NONE',  ( 12.50000000000001600, -38.00000000000002100, 1.000000000000000000 ) ) ;
#62 = DIRECTION ( 'NONE',  ( 1.000000000000000000, 0.0000000000000000000, 0.0000000000000000000 ) ) ;
#63 = LINE ( 'NONE', #53, #187 ) ;
#64 = DIRECTION ( 'NONE',  ( -1.000000000000000000, -1.826024711554533900E-016, 0.0000000000000000000 ) ) ;
#65 = DATE_TIME_ROLE ( 'creation_date' ) ;
#66 = EDGE_CURVE ( 'NONE', #91, #232, #63, .T. ) ;
#67 = FACE_OUTER_BOUND ( 'NONE', #146, .T. ) ;
#68 = VERTEX_POINT ( 'NONE', #114 ) ;
#69 = EDGE_CURVE ( 'NONE', #55, #229, #167, .T. ) ;
#70 = DIRECTION ( 'NONE',  ( -0.0000000000000000000, -0.0000000000000000000, -1.000000000000000000 ) ) ;
#71 = COORDINATED_UNIVERSAL_TIME_OFFSET ( 5, 0, .BEHIND. ) ;
#72 = CARTESIAN_POINT ( 'NONE',  ( 0.0000000000000000000, 0.0000000000000000000, -1.000000000000000000 ) ) ;
#73 = DIRECTION ( 'NONE',  ( -1.000000000000000000, -0.0000000000000000000, -0.0000000000000000000 ) ) ;
#74 = LINE ( 'NONE', #159, #148 ) ;
#75 = APPLICATION_CONTEXT ( 'configuration controlled 3d designs of mechanical parts and assemblies' ) ;
#76 = CARTESIAN_POINT ( 'NONE',  ( -12.49999999999999800, 37.99999999999997900, -1.000000000000000000 ) ) ;
#77 = APPROVAL_ROLE ( '' ) ;
#78 = LINE ( 'NONE', #221, #236 ) ;
#79 = AXIS2_PLACEMENT_3D ( 'NONE', #72, #138, #62 ) ;
#80 = CARTESIAN_POINT ( 'NONE',  ( -12.49999999999998900, -38.00000000000002100, -1.000000000000000000 ) ) ;
#81 = ORIENTED_EDGE ( 'NONE', *, *, #226, .T. ) ;
#82 = ORIENTED_EDGE ( 'NONE', *, *, #85, .F. ) ;
#83 = LINE ( 'NONE', #110, #224 ) ;
#84 = APPROVAL_STATUS ( 'not_yet_approved' ) ;
#85 = EDGE_CURVE ( 'NONE', #55, #68, #83, .T. ) ;
#86 = EDGE_LOOP ( 'NONE', ( #215, #141, #57, #233 ) ) ;
#87 = ORIENTED_EDGE ( 'NONE', *, *, #132, .T. ) ;
#88 = VERTEX_POINT ( 'NONE', #139 ) ;
#89 = AXIS2_PLACEMENT_3D ( 'NONE', #134, #8, #163 ) ;
#90 = ORIENTED_EDGE ( 'NONE', *, *, #66, .T. ) ;
#91 = VERTEX_POINT ( 'NONE', #59 ) ;
#92 = DIRECTION ( 'NONE',  ( -1.826024711554533900E-016, 1.000000000000000000, -0.0000000000000000000 ) ) ;
#93 = CARTESIAN_POINT ( 'NONE',  ( 0.0000000000000000000, 0.0000000000000000000, 1.000000000000000000 ) ) ;
#94 = VECTOR ( 'NONE', #201, 1000.000000000000000 ) ;
#95 = ORIENTED_EDGE ( 'NONE', *, *, #69, .F. ) ;
#96 = APPROVAL_DATE_TIME ( #156, #203 ) ;
#97 =( NAMED_UNIT ( * ) PLANE_ANGLE_UNIT ( ) SI_UNIT ( $, .RADIAN. ) );
#98 = SHAPE_DEFINITION_REPRESENTATION ( #7, #176 ) ;
#99 = CARTESIAN_POINT ( 'NONE',  ( -12.49999999999999800, 37.99999999999997900, 1.000000000000000000 ) ) ;
#100 = EDGE_LOOP ( 'NONE', ( #40, #147, #212, #60 ) ) ;
#101 = DIRECTION ( 'NONE',  ( -0.0000000000000000000, -0.0000000000000000000, -1.000000000000000000 ) ) ;
#102 = CARTESIAN_POINT ( 'NONE',  ( 12.50000000000000200, 37.99999999999997900, 1.000000000000000000 ) ) ;
#103 = CLOSED_SHELL ( 'NONE', ( #26, #2, #11, #155, #196, #195 ) ) ;
#104 = CARTESIAN_POINT ( 'NONE',  ( 12.50000000000000200, 37.99999999999997900, -1.000000000000000000 ) ) ;
#105 = CC_DESIGN_DATE_AND_TIME_ASSIGNMENT ( #48, #65, ( #123 ) ) ;
#106 = EDGE_CURVE ( 'NONE', #232, #88, #190, .T. ) ;
#107 = LINE ( 'NONE', #211, #46 ) ;
#108 = CALENDAR_DATE ( 2017, 10, 4 ) ;
#109 = CC_DESIGN_PERSON_AND_ORGANIZATION_ASSIGNMENT ( #208, #207, ( #9 ) ) ;
#110 = CARTESIAN_POINT ( 'NONE',  ( 12.50000000000000200, 37.99999999999997900, 1.000000000000000000 ) ) ;
#111 = CC_DESIGN_APPROVAL ( #133, ( #9 ) ) ;
#112 = CARTESIAN_POINT ( 'NONE',  ( -12.49999999999999800, 37.99999999999997900, 1.000000000000000000 ) ) ;
#113 = CALENDAR_DATE ( 2017, 10, 4 ) ;
#114 = CARTESIAN_POINT ( 'NONE',  ( 12.50000000000000200, 37.99999999999997900, -1.000000000000000000 ) ) ;
#115 = LINE ( 'NONE', #19, #174 ) ;
#116 = PRODUCT ( 'Web Model 31411_31411', 'Web Model 31411_31411', '', ( #5 ) ) ;
#117 = FACE_OUTER_BOUND ( 'NONE', #100, .T. ) ;
#118 = VECTOR ( 'NONE', #27, 1000.000000000000000 ) ;
#119 = ORIENTED_EDGE ( 'NONE', *, *, #219, .F. ) ;
#120 = FACE_OUTER_BOUND ( 'NONE', #86, .T. ) ;
#121 = LINE ( 'NONE', #1, #186 ) ;
#122 = PERSON_AND_ORGANIZATION_ROLE ( 'creator' ) ;
#123 = PRODUCT_DEFINITION ( 'UNKNOWN', '', #9, #182 ) ;
#124 = EDGE_LOOP ( 'NONE', ( #23, #82, #119, #170 ) ) ;
#125 = APPROVAL_ROLE ( '' ) ;
#126 = CC_DESIGN_PERSON_AND_ORGANIZATION_ASSIGNMENT ( #204, #45, ( #116 ) ) ;
#127 = LOCAL_TIME ( 13, 51, 2.000000000000000000, #178 ) ;
#128 = AXIS2_PLACEMENT_3D ( 'NONE', #142, #220, #227 ) ;
#129 = CARTESIAN_POINT ( 'NONE',  ( -12.49999999999998900, -38.00000000000002100, -1.000000000000000000 ) ) ;
#130 = FACE_OUTER_BOUND ( 'NONE', #161, .T. ) ;
#131 = ORIENTED_EDGE ( 'NONE', *, *, #219, .T. ) ;
#132 = EDGE_CURVE ( 'NONE', #229, #91, #121, .T. ) ;
#133 = APPROVAL ( #84, 'UNSPECIFIED' ) ;
#134 = CARTESIAN_POINT ( 'NONE',  ( 0.0000000000000000000, 0.0000000000000000000, 0.0000000000000000000 ) ) ;
#135 = CARTESIAN_POINT ( 'NONE',  ( -12.49999999999999800, 37.99999999999997900, 1.000000000000000000 ) ) ;
#136 = AXIS2_PLACEMENT_3D ( 'NONE', #102, #64, #28 ) ;
#137 = DIRECTION ( 'NONE',  ( 1.000000000000000000, 0.0000000000000000000, 0.0000000000000000000 ) ) ;
#138 = DIRECTION ( 'NONE',  ( -0.0000000000000000000, 0.0000000000000000000, 1.000000000000000000 ) ) ;
#139 = CARTESIAN_POINT ( 'NONE',  ( 12.50000000000001600, -38.00000000000002100, -1.000000000000000000 ) ) ;
#140 = EDGE_CURVE ( 'NONE', #235, #151, #74, .T. ) ;
#141 = ORIENTED_EDGE ( 'NONE', *, *, #184, .F. ) ;
#142 = CARTESIAN_POINT ( 'NONE',  ( -12.49999999999998900, -38.00000000000002100, 1.000000000000000000 ) ) ;
#143 =( GEOMETRIC_REPRESENTATION_CONTEXT ( 3 ) GLOBAL_UNCERTAINTY_ASSIGNED_CONTEXT ( ( #33 ) ) GLOBAL_UNIT_ASSIGNED_CONTEXT ( ( #173, #97, #223 ) ) REPRESENTATION_CONTEXT ( 'NONE', 'WORKASPACE' ) );
#144 = PERSON_AND_ORGANIZATION ( #166, #216 ) ;
#145 = DIRECTION ( 'NONE',  ( 1.000000000000000000, 1.369518533665900300E-016, -0.0000000000000000000 ) ) ;
#146 = EDGE_LOOP ( 'NONE', ( #172, #21, #32, #177 ) ) ;
#147 = ORIENTED_EDGE ( 'NONE', *, *, #106, .F. ) ;
#148 = VECTOR ( 'NONE', #41, 1000.000000000000000 ) ;
#149 = CARTESIAN_POINT ( 'NONE',  ( -12.49999999999999800, 37.99999999999997900, -1.000000000000000000 ) ) ;
#150 = CC_DESIGN_PERSON_AND_ORGANIZATION_ASSIGNMENT ( #35, #47, ( #9 ) ) ;
#151 = VERTEX_POINT ( 'NONE', #80 ) ;
#152 = AXIS2_PLACEMENT_3D ( 'NONE', #135, #145, #160 ) ;
#153 = LINE ( 'NONE', #76, #205 ) ;
#154 = APPROVAL_PERSON_ORGANIZATION ( #43, #213, #77 ) ;
#155 = ADVANCED_FACE ( 'NONE', ( #117 ), #39, .F. ) ;
#156 = DATE_AND_TIME ( #113, #199 ) ;
#157 = ORIENTED_EDGE ( 'NONE', *, *, #12, .F. ) ;
#158 = CC_DESIGN_APPROVAL ( #203, ( #185 ) ) ;
#159 = CARTESIAN_POINT ( 'NONE',  ( -12.49999999999999800, 37.99999999999997900, -1.000000000000000000 ) ) ;
#160 = DIRECTION ( 'NONE',  ( -1.369518533665900300E-016, 1.000000000000000000, 0.0000000000000000000 ) ) ;
#161 = EDGE_LOOP ( 'NONE', ( #131, #58, #87, #90 ) ) ;
#162 = CALENDAR_DATE ( 2017, 10, 4 ) ;
#163 = DIRECTION ( 'NONE',  ( 1.000000000000000000, 0.0000000000000000000, 0.0000000000000000000 ) ) ;
#164 = SECURITY_CLASSIFICATION_LEVEL ( 'unclassified' ) ;
#165 = CARTESIAN_POINT ( 'NONE',  ( 12.50000000000000200, 37.99999999999997900, 1.000000000000000000 ) ) ;
#166 = PERSON ( 'UNSPECIFIED', 'UNSPECIFIED', 'UNSPECIFIED', ('UNSPECIFIED'), ('UNSPECIFIED'), ('UNSPECIFIED') ) ;
#167 = LINE ( 'NONE', #209, #198 ) ;
#168 = PRODUCT_RELATED_PRODUCT_CATEGORY ( 'detail', '', ( #116 ) ) ;
#169 = DATE_TIME_ROLE ( 'classification_date' ) ;
#170 = ORIENTED_EDGE ( 'NONE', *, *, #106, .T. ) ;
#171 = PLANE ( 'NONE',  #152 ) ;
#172 = ORIENTED_EDGE ( 'NONE', *, *, #140, .T. ) ;
#173 =( LENGTH_UNIT ( ) NAMED_UNIT ( * ) SI_UNIT ( .MILLI., .METRE. ) );
#174 = VECTOR ( 'NONE', #92, 1000.000000000000000 ) ;
#175 = PLANE ( 'NONE',  #136 ) ;
#176 = ADVANCED_BREP_SHAPE_REPRESENTATION ( 'Web Model 31411_31411', ( #231, #89 ), #143 ) ;
#177 = ORIENTED_EDGE ( 'NONE', *, *, #12, .T. ) ;
#178 = COORDINATED_UNIVERSAL_TIME_OFFSET ( 5, 0, .BEHIND. ) ;
#179 = DATE_AND_TIME ( #14, #16 ) ;
#180 = DIRECTION ( 'NONE',  ( -0.0000000000000000000, 0.0000000000000000000, 1.000000000000000000 ) ) ;
#181 = COORDINATED_UNIVERSAL_TIME_OFFSET ( 5, 0, .BEHIND. ) ;
#182 = DESIGN_CONTEXT ( 'detailed design', #75, 'design' ) ;
#183 = CC_DESIGN_SECURITY_CLASSIFICATION ( #185, ( #9 ) ) ;
#184 = EDGE_CURVE ( 'NONE', #151, #88, #188, .T. ) ;
#185 = SECURITY_CLASSIFICATION ( '', '', #164 ) ;
#186 = VECTOR ( 'NONE', #38, 1000.000000000000000 ) ;
#187 = VECTOR ( 'NONE', #10, 1000.000000000000000 ) ;
#188 = LINE ( 'NONE', #129, #118 ) ;
#189 = APPROVAL_DATE_TIME ( #17, #213 ) ;
#190 = LINE ( 'NONE', #61, #218 ) ;
#191 = APPROVAL_STATUS ( 'not_yet_approved' ) ;
#192 = AXIS2_PLACEMENT_3D ( 'NONE', #112, #36, #51 ) ;
#193 = PLANE ( 'NONE',  #79 ) ;
#194 = CC_DESIGN_PERSON_AND_ORGANIZATION_ASSIGNMENT ( #144, #3, ( #185 ) ) ;
#195 = ADVANCED_FACE ( 'NONE', ( #120 ), #193, .F. ) ;
#196 = ADVANCED_FACE ( 'NONE', ( #130 ), #225, .T. ) ;
#197 = CC_DESIGN_DATE_AND_TIME_ASSIGNMENT ( #179, #169, ( #185 ) ) ;
#198 = VECTOR ( 'NONE', #228, 1000.000000000000000 ) ;
#199 = LOCAL_TIME ( 13, 51, 2.000000000000000000, #71 ) ;
#200 = DATE_AND_TIME ( #162, #31 ) ;
#201 = DIRECTION ( 'NONE',  ( -1.826024711554533900E-016, 1.000000000000000000, -0.0000000000000000000 ) ) ;
#202 = COORDINATED_UNIVERSAL_TIME_OFFSET ( 5, 0, .BEHIND. ) ;
#203 = APPROVAL ( #191, 'UNSPECIFIED' ) ;
#204 = PERSON_AND_ORGANIZATION ( #166, #216 ) ;
#205 = VECTOR ( 'NONE', #73, 1000.000000000000000 ) ;
#206 = PERSON_AND_ORGANIZATION ( #166, #216 ) ;
#207 = PERSON_AND_ORGANIZATION_ROLE ( 'creator' ) ;
#208 = PERSON_AND_ORGANIZATION ( #166, #216 ) ;
#209 = CARTESIAN_POINT ( 'NONE',  ( -12.49999999999999800, 37.99999999999997900, 1.000000000000000000 ) ) ;
#210 = CARTESIAN_POINT ( 'NONE',  ( 12.50000000000001600, -38.00000000000002100, 1.000000000000000000 ) ) ;
#211 = CARTESIAN_POINT ( 'NONE',  ( -12.49999999999998900, -38.00000000000002100, 1.000000000000000000 ) ) ;
#212 = ORIENTED_EDGE ( 'NONE', *, *, #66, .F. ) ;
#213 = APPROVAL ( #222, 'UNSPECIFIED' ) ;
#214 = EDGE_CURVE ( 'NONE', #91, #151, #107, .T. ) ;
#215 = ORIENTED_EDGE ( 'NONE', *, *, #34, .F. ) ;
#216 = ORGANIZATION ( 'UNSPECIFIED', 'UNSPECIFIED', '' ) ;
#217 = CALENDAR_DATE ( 2017, 10, 4 ) ;
#218 = VECTOR ( 'NONE', #70, 1000.000000000000000 ) ;
#219 = EDGE_CURVE ( 'NONE', #232, #55, #115, .T. ) ;
#220 = DIRECTION ( 'NONE',  ( 0.0000000000000000000, 1.000000000000000000, 0.0000000000000000000 ) ) ;
#221 = CARTESIAN_POINT ( 'NONE',  ( -12.49999999999999800, 37.99999999999997900, 1.000000000000000000 ) ) ;
#222 = APPROVAL_STATUS ( 'not_yet_approved' ) ;
#223 =( NAMED_UNIT ( * ) SI_UNIT ( $, .STERADIAN. ) SOLID_ANGLE_UNIT ( ) );
#224 = VECTOR ( 'NONE', #13, 1000.000000000000000 ) ;
#225 = PLANE ( 'NONE',  #29 ) ;
#226 = EDGE_CURVE ( 'NONE', #68, #235, #153, .T. ) ;
#227 = DIRECTION ( 'NONE',  ( 0.0000000000000000000, -0.0000000000000000000, 1.000000000000000000 ) ) ;
#228 = DIRECTION ( 'NONE',  ( -1.000000000000000000, -0.0000000000000000000, -0.0000000000000000000 ) ) ;
#229 = VERTEX_POINT ( 'NONE', #99 ) ;
#230 = CC_DESIGN_APPROVAL ( #213, ( #123 ) ) ;
#231 = MANIFOLD_SOLID_BREP ( 'Boss-Extrude1', #103 ) ;
#232 = VERTEX_POINT ( 'NONE', #210 ) ;
#233 = ORIENTED_EDGE ( 'NONE', *, *, #226, .F. ) ;
#234 = FACE_OUTER_BOUND ( 'NONE', #124, .T. ) ;
#235 = VERTEX_POINT ( 'NONE', #149 ) ;
#236 = VECTOR ( 'NONE', #101, 1000.000000000000000 ) ;
#237 = APPLICATION_CONTEXT ( 'configuration controlled 3d designs of mechanical parts and assemblies' ) ;
ENDSEC;
END-ISO-10303-21;
