ISO-10303-21;
HEADER;
FILE_DESCRIPTION (( 'STEP AP203' ),
    '1' );
FILE_NAME ('Web Model 22036_22037.step',
    '2022-06-08T15:09:15',
    ( '' ),
    ( '' ),
    'SwSTEP 2.0',
    'SolidWorks 2021',
    '' );
FILE_SCHEMA (( 'CONFIG_CONTROL_DESIGN' ));
ENDSEC;

DATA;
#1 = APPROVAL ( #131, 'UNSPECIFIED' ) ;
#2 = DIRECTION ( 'NONE',  ( 1.000000000000000000, 0.000000000000000000, 0.000000000000000000 ) ) ;
#3 = FACE_OUTER_BOUND ( 'NONE', #54, .T. ) ;
#4 = CARTESIAN_POINT ( 'NONE',  ( -5.000000000000000000, 0.000000000000000000, 0.000000000000000000 ) ) ;
#5 = CC_DESIGN_PERSON_AND_ORGANIZATION_ASSIGNMENT ( #76, #105, ( #136 ) ) ;
#6 = AXIS2_PLACEMENT_3D ( 'NONE', #32, #164, #45 ) ;
#7 = LOCAL_TIME ( 11, 9, 15.00000000000000000, #88 ) ;
#8 = MECHANICAL_CONTEXT ( 'NONE', #116, 'mechanical' ) ;
#9 = DATE_AND_TIME ( #90, #20 ) ;
#10 = PRODUCT_DEFINITION_SHAPE ( 'NONE', 'NONE',  #114 ) ;
#11 = PERSON_AND_ORGANIZATION ( #148, #47 ) ;
#12 = ORIENTED_EDGE ( 'NONE', *, *, #48, .T. ) ;
#13 = EDGE_LOOP ( 'NONE', ( #25, #161, #26, #28 ) ) ;
#14 = CC_DESIGN_PERSON_AND_ORGANIZATION_ASSIGNMENT ( #77, #79, ( #110 ) ) ;
#15 = VECTOR ( 'NONE', #167, 1000.000000000000000 ) ;
#16 = DIRECTION ( 'NONE',  ( 1.000000000000000000, 0.000000000000000000, -0.000000000000000000 ) ) ;
#17 = DIRECTION ( 'NONE',  ( 1.000000000000000000, 0.000000000000000000, 0.000000000000000000 ) ) ;
#18 = DIRECTION ( 'NONE',  ( 0.000000000000000000, 0.000000000000000000, 1.000000000000000000 ) ) ;
#19 = CARTESIAN_POINT ( 'NONE',  ( -5.000000000000000000, 0.000000000000000000, 0.2000000000000000111 ) ) ;
#20 = LOCAL_TIME ( 11, 9, 15.00000000000000000, #51 ) ;
#21 = CIRCLE ( 'NONE', #6, 5.000000000000000000 ) ;
#22 = APPROVAL_DATE_TIME ( #9, #36 ) ;
#23 = CARTESIAN_POINT ( 'NONE',  ( 5.000000000000000000, 6.123233995736766282E-16, 0.2000000000000000111 ) ) ;
#24 = APPROVAL_STATUS ( 'not_yet_approved' ) ;
#25 = ORIENTED_EDGE ( 'NONE', *, *, #168, .F. ) ;
#26 = ORIENTED_EDGE ( 'NONE', *, *, #49, .T. ) ;
#27 = PERSON_AND_ORGANIZATION_ROLE ( 'creator' ) ;
#28 = ORIENTED_EDGE ( 'NONE', *, *, #129, .T. ) ;
#29 = CC_DESIGN_APPROVAL ( #158, ( #110 ) ) ;
#30 = DIRECTION ( 'NONE',  ( -0.000000000000000000, -0.000000000000000000, -1.000000000000000000 ) ) ;
#31 =( NAMED_UNIT ( * ) PLANE_ANGLE_UNIT ( ) SI_UNIT ( $, .RADIAN. ) );
#32 = CARTESIAN_POINT ( 'NONE',  ( 0.000000000000000000, 0.000000000000000000, 0.2000000000000000111 ) ) ;
#33 = CC_DESIGN_PERSON_AND_ORGANIZATION_ASSIGNMENT ( #93, #27, ( #136 ) ) ;
#34 = DESIGN_CONTEXT ( 'detailed design', #153, 'design' ) ;
#35 = APPROVAL_STATUS ( 'not_yet_approved' ) ;
#36 = APPROVAL ( #35, 'UNSPECIFIED' ) ;
#37 = LOCAL_TIME ( 11, 9, 15.00000000000000000, #119 ) ;
#38 = APPROVAL_ROLE ( '' ) ;
#39 = APPROVAL_DATE_TIME ( #133, #1 ) ;
#40 = ORIENTED_EDGE ( 'NONE', *, *, #49, .F. ) ;
#41 = SECURITY_CLASSIFICATION_LEVEL ( 'unclassified' ) ;
#42 = VERTEX_POINT ( 'NONE', #23 ) ;
#43 = DIRECTION ( 'NONE',  ( -1.000000000000000000, 0.000000000000000000, 0.000000000000000000 ) ) ;
#44 = PLANE ( 'NONE',  #55 ) ;
#45 = DIRECTION ( 'NONE',  ( 1.000000000000000000, 0.000000000000000000, 0.000000000000000000 ) ) ;
#46 = CYLINDRICAL_SURFACE ( 'NONE', #160, 5.000000000000000000 ) ;
#47 = ORGANIZATION ( 'UNSPECIFIED', 'UNSPECIFIED', '' ) ;
#48 = EDGE_CURVE ( 'NONE', #175, #42, #87, .T. ) ;
#49 = EDGE_CURVE ( 'NONE', #175, #94, #58, .T. ) ;
#50 = MANIFOLD_SOLID_BREP ( 'Boss-Extrude1', #140 ) ;
#51 = COORDINATED_UNIVERSAL_TIME_OFFSET ( 5, 0, .BEHIND. ) ;
#52 = APPROVAL_DATE_TIME ( #173, #158 ) ;
#53 = CALENDAR_DATE ( 2022, 8, 6 ) ;
#54 = EDGE_LOOP ( 'NONE', ( #12, #134 ) ) ;
#55 = AXIS2_PLACEMENT_3D ( 'NONE', #98, #18, #155 ) ;
#56 = FACE_OUTER_BOUND ( 'NONE', #13, .T. ) ;
#57 = APPROVAL_PERSON_ORGANIZATION ( #144, #158, #132 ) ;
#58 = LINE ( 'NONE', #19, #15 ) ;
#59 = DIRECTION ( 'NONE',  ( -1.000000000000000000, 0.000000000000000000, 0.000000000000000000 ) ) ;
#60 = AXIS2_PLACEMENT_3D ( 'NONE', #141, #145, #95 ) ;
#61 = CC_DESIGN_DATE_AND_TIME_ASSIGNMENT ( #107, #91, ( #110 ) ) ;
#62 = PERSON_AND_ORGANIZATION ( #148, #47 ) ;
#63 = COORDINATED_UNIVERSAL_TIME_OFFSET ( 5, 0, .BEHIND. ) ;
#64 = PRODUCT ( 'Web Model 22036_22037', 'Web Model 22036_22037', '', ( #8 ) ) ;
#65 = PERSON_AND_ORGANIZATION_ROLE ( 'creator' ) ;
#66 = VERTEX_POINT ( 'NONE', #71 ) ;
#67 = APPLICATION_PROTOCOL_DEFINITION ( 'international standard', 'config_control_design', 1994, #116 ) ;
#68 = LOCAL_TIME ( 11, 9, 15.00000000000000000, #63 ) ;
#69 = EDGE_CURVE ( 'NONE', #42, #175, #21, .T. ) ;
#70 = FACE_OUTER_BOUND ( 'NONE', #92, .T. ) ;
#71 = CARTESIAN_POINT ( 'NONE',  ( 5.000000000000000000, 6.123233995736766282E-16, 0.000000000000000000 ) ) ;
#72 = CARTESIAN_POINT ( 'NONE',  ( 0.000000000000000000, 0.000000000000000000, 0.000000000000000000 ) ) ;
#73 =( GEOMETRIC_REPRESENTATION_CONTEXT ( 3 ) GLOBAL_UNCERTAINTY_ASSIGNED_CONTEXT ( ( #102 ) ) GLOBAL_UNIT_ASSIGNED_CONTEXT ( ( #97, #31, #111 ) ) REPRESENTATION_CONTEXT ( 'NONE', 'WORKASPACE' ) );
#74 = CALENDAR_DATE ( 2022, 8, 6 ) ;
#75 = CC_DESIGN_SECURITY_CLASSIFICATION ( #110, ( #136 ) ) ;
#76 = PERSON_AND_ORGANIZATION ( #148, #47 ) ;
#77 = PERSON_AND_ORGANIZATION ( #148, #47 ) ;
#78 = PERSON_AND_ORGANIZATION_ROLE ( 'design_owner' ) ;
#79 = PERSON_AND_ORGANIZATION_ROLE ( 'classification_officer' ) ;
#80 = CARTESIAN_POINT ( 'NONE',  ( 0.000000000000000000, 0.000000000000000000, 0.000000000000000000 ) ) ;
#81 = CARTESIAN_POINT ( 'NONE',  ( 0.000000000000000000, 0.000000000000000000, 0.2000000000000000111 ) ) ;
#82 = DIRECTION ( 'NONE',  ( 0.000000000000000000, 0.000000000000000000, 1.000000000000000000 ) ) ;
#83 = ADVANCED_BREP_SHAPE_REPRESENTATION ( 'Web Model 22036_22037', ( #50, #60 ), #73 ) ;
#84 = CARTESIAN_POINT ( 'NONE',  ( 0.000000000000000000, 0.000000000000000000, 0.2000000000000000111 ) ) ;
#85 = ADVANCED_FACE ( 'NONE', ( #56 ), #46, .T. ) ;
#86 = ADVANCED_FACE ( 'NONE', ( #3 ), #44, .T. ) ;
#87 = CIRCLE ( 'NONE', #138, 5.000000000000000000 ) ;
#88 = COORDINATED_UNIVERSAL_TIME_OFFSET ( 5, 0, .BEHIND. ) ;
#89 = VECTOR ( 'NONE', #152, 1000.000000000000000 ) ;
#90 = CALENDAR_DATE ( 2022, 8, 6 ) ;
#91 = DATE_TIME_ROLE ( 'classification_date' ) ;
#92 = EDGE_LOOP ( 'NONE', ( #172, #123, #149, #40 ) ) ;
#93 = PERSON_AND_ORGANIZATION ( #148, #47 ) ;
#94 = VERTEX_POINT ( 'NONE', #4 ) ;
#95 = DIRECTION ( 'NONE',  ( 1.000000000000000000, 0.000000000000000000, 0.000000000000000000 ) ) ;
#96 = ADVANCED_FACE ( 'NONE', ( #137 ), #124, .F. ) ;
#97 =( LENGTH_UNIT ( ) NAMED_UNIT ( * ) SI_UNIT ( .MILLI., .METRE. ) );
#98 = CARTESIAN_POINT ( 'NONE',  ( 0.000000000000000000, 0.000000000000000000, 0.2000000000000000111 ) ) ;
#99 = CYLINDRICAL_SURFACE ( 'NONE', #156, 5.000000000000000000 ) ;
#100 = DIRECTION ( 'NONE',  ( 0.000000000000000000, 0.000000000000000000, 1.000000000000000000 ) ) ;
#101 = APPROVAL_PERSON_ORGANIZATION ( #62, #1, #38 ) ;
#102 = UNCERTAINTY_MEASURE_WITH_UNIT (LENGTH_MEASURE( 1.000000000000000082E-05 ), #97, 'distance_accuracy_value', 'NONE');
#103 = CC_DESIGN_DATE_AND_TIME_ASSIGNMENT ( #174, #159, ( #114 ) ) ;
#104 = PERSON_AND_ORGANIZATION ( #148, #47 ) ;
#105 = PERSON_AND_ORGANIZATION_ROLE ( 'design_supplier' ) ;
#106 = SHAPE_DEFINITION_REPRESENTATION ( #10, #83 ) ;
#107 = DATE_AND_TIME ( #53, #7 ) ;
#108 = AXIS2_PLACEMENT_3D ( 'NONE', #72, #82, #16 ) ;
#109 = CARTESIAN_POINT ( 'NONE',  ( 5.000000000000000000, 6.123233995736766282E-16, 0.2000000000000000111 ) ) ;
#110 = SECURITY_CLASSIFICATION ( '', '', #41 ) ;
#111 =( NAMED_UNIT ( * ) SI_UNIT ( $, .STERADIAN. ) SOLID_ANGLE_UNIT ( ) );
#112 = DIRECTION ( 'NONE',  ( 0.000000000000000000, 0.000000000000000000, 1.000000000000000000 ) ) ;
#113 = DIRECTION ( 'NONE',  ( 1.000000000000000000, 0.000000000000000000, 0.000000000000000000 ) ) ;
#114 = PRODUCT_DEFINITION ( 'UNKNOWN', '', #136, #34 ) ;
#115 = CC_DESIGN_APPROVAL ( #1, ( #114 ) ) ;
#116 = APPLICATION_CONTEXT ( 'configuration controlled 3d designs of mechanical parts and assemblies' ) ;
#117 = CALENDAR_DATE ( 2022, 8, 6 ) ;
#118 = ADVANCED_FACE ( 'NONE', ( #70 ), #99, .T. ) ;
#119 = COORDINATED_UNIVERSAL_TIME_OFFSET ( 5, 0, .BEHIND. ) ;
#120 = ORIENTED_EDGE ( 'NONE', *, *, #127, .F. ) ;
#121 = ORIENTED_EDGE ( 'NONE', *, *, #129, .F. ) ;
#122 = CALENDAR_DATE ( 2022, 8, 6 ) ;
#123 = ORIENTED_EDGE ( 'NONE', *, *, #168, .T. ) ;
#124 = PLANE ( 'NONE',  #108 ) ;
#125 = DIRECTION ( 'NONE',  ( -0.000000000000000000, -0.000000000000000000, -1.000000000000000000 ) ) ;
#126 = APPROVAL_PERSON_ORGANIZATION ( #147, #36, #171 ) ;
#127 = EDGE_CURVE ( 'NONE', #66, #94, #169, .T. ) ;
#128 = CIRCLE ( 'NONE', #143, 5.000000000000000000 ) ;
#129 = EDGE_CURVE ( 'NONE', #94, #66, #128, .T. ) ;
#130 = CC_DESIGN_APPROVAL ( #36, ( #136 ) ) ;
#131 = APPROVAL_STATUS ( 'not_yet_approved' ) ;
#132 = APPROVAL_ROLE ( '' ) ;
#133 = DATE_AND_TIME ( #117, #68 ) ;
#134 = ORIENTED_EDGE ( 'NONE', *, *, #69, .T. ) ;
#135 = CARTESIAN_POINT ( 'NONE',  ( 0.000000000000000000, 0.000000000000000000, 0.000000000000000000 ) ) ;
#136 = PRODUCT_DEFINITION_FORMATION_WITH_SPECIFIED_SOURCE ( 'ANY', '', #64, .NOT_KNOWN. ) ;
#137 = FACE_OUTER_BOUND ( 'NONE', #146, .T. ) ;
#138 = AXIS2_PLACEMENT_3D ( 'NONE', #84, #139, #113 ) ;
#139 = DIRECTION ( 'NONE',  ( 0.000000000000000000, 0.000000000000000000, 1.000000000000000000 ) ) ;
#140 = CLOSED_SHELL ( 'NONE', ( #118, #85, #86, #96 ) ) ;
#141 = CARTESIAN_POINT ( 'NONE',  ( 0.000000000000000000, 0.000000000000000000, 0.000000000000000000 ) ) ;
#142 = CC_DESIGN_PERSON_AND_ORGANIZATION_ASSIGNMENT ( #11, #65, ( #114 ) ) ;
#143 = AXIS2_PLACEMENT_3D ( 'NONE', #135, #112, #2 ) ;
#144 = PERSON_AND_ORGANIZATION ( #148, #47 ) ;
#145 = DIRECTION ( 'NONE',  ( 0.000000000000000000, 0.000000000000000000, 1.000000000000000000 ) ) ;
#146 = EDGE_LOOP ( 'NONE', ( #121, #120 ) ) ;
#147 = PERSON_AND_ORGANIZATION ( #148, #47 ) ;
#148 = PERSON ( 'UNSPECIFIED', 'UNSPECIFIED', 'UNSPECIFIED', ('UNSPECIFIED'), ('UNSPECIFIED'), ('UNSPECIFIED') ) ;
#149 = ORIENTED_EDGE ( 'NONE', *, *, #127, .T. ) ;
#150 = LINE ( 'NONE', #109, #89 ) ;
#151 = PRODUCT_RELATED_PRODUCT_CATEGORY ( 'detail', '', ( #64 ) ) ;
#152 = DIRECTION ( 'NONE',  ( -0.000000000000000000, -0.000000000000000000, -1.000000000000000000 ) ) ;
#153 = APPLICATION_CONTEXT ( 'configuration controlled 3d designs of mechanical parts and assemblies' ) ;
#154 = CARTESIAN_POINT ( 'NONE',  ( 0.000000000000000000, 0.000000000000000000, 0.2000000000000000111 ) ) ;
#155 = DIRECTION ( 'NONE',  ( 1.000000000000000000, 0.000000000000000000, -0.000000000000000000 ) ) ;
#156 = AXIS2_PLACEMENT_3D ( 'NONE', #154, #30, #59 ) ;
#157 = LOCAL_TIME ( 11, 9, 15.00000000000000000, #162 ) ;
#158 = APPROVAL ( #24, 'UNSPECIFIED' ) ;
#159 = DATE_TIME_ROLE ( 'creation_date' ) ;
#160 = AXIS2_PLACEMENT_3D ( 'NONE', #81, #125, #43 ) ;
#161 = ORIENTED_EDGE ( 'NONE', *, *, #48, .F. ) ;
#162 = COORDINATED_UNIVERSAL_TIME_OFFSET ( 5, 0, .BEHIND. ) ;
#163 = AXIS2_PLACEMENT_3D ( 'NONE', #80, #100, #17 ) ;
#164 = DIRECTION ( 'NONE',  ( 0.000000000000000000, 0.000000000000000000, 1.000000000000000000 ) ) ;
#165 = CC_DESIGN_PERSON_AND_ORGANIZATION_ASSIGNMENT ( #104, #78, ( #64 ) ) ;
#166 = CARTESIAN_POINT ( 'NONE',  ( -5.000000000000000000, 0.000000000000000000, 0.2000000000000000111 ) ) ;
#167 = DIRECTION ( 'NONE',  ( -0.000000000000000000, -0.000000000000000000, -1.000000000000000000 ) ) ;
#168 = EDGE_CURVE ( 'NONE', #42, #66, #150, .T. ) ;
#169 = CIRCLE ( 'NONE', #163, 5.000000000000000000 ) ;
#170 = APPLICATION_PROTOCOL_DEFINITION ( 'international standard', 'config_control_design', 1994, #153 ) ;
#171 = APPROVAL_ROLE ( '' ) ;
#172 = ORIENTED_EDGE ( 'NONE', *, *, #69, .F. ) ;
#173 = DATE_AND_TIME ( #74, #157 ) ;
#174 = DATE_AND_TIME ( #122, #37 ) ;
#175 = VERTEX_POINT ( 'NONE', #166 ) ;
ENDSEC;
END-ISO-10303-21;
