ISO-10303-21;
HEADER;
FILE_DESCRIPTION (( 'STEP AP203' ),
    '1' );
FILE_NAME ('Web Model 68512.STEP',
    '2017-02-01T13:25:02',
    ( '' ),
    ( '' ),
    'SwSTEP 2.0',
    'SolidWorks 2016',
    '' );
FILE_SCHEMA (( 'CONFIG_CONTROL_DESIGN' ));
ENDSEC;

DATA;
#1 = PERSON_AND_ORGANIZATION ( #98, #7 ) ;
#2 = EDGE_LOOP ( 'NONE', ( #153, #50 ) ) ;
#3 = CC_DESIGN_PERSON_AND_ORGANIZATION_ASSIGNMENT ( #112, #21, ( #35 ) ) ;
#4 = CARTESIAN_POINT ( 'NONE',  ( 0.0000000000000000000, 0.0000000000000000000, 1.000000000000000000 ) ) ;
#5 = PLANE ( 'NONE',  #102 ) ;
#6 = CARTESIAN_POINT ( 'NONE',  ( 12.50000000000000000, 1.530808498934191500E-015, 1.000000000000000000 ) ) ;
#7 = ORGANIZATION ( 'UNSPECIFIED', 'UNSPECIFIED', '' ) ;
#8 = EDGE_CURVE ( 'NONE', #130, #13, #119, .T. ) ;
#9 = MANIFOLD_SOLID_BREP ( 'Extrude1', #91 ) ;
#10 = APPROVAL_PERSON_ORGANIZATION ( #59, #159, #82 ) ;
#11 = CYLINDRICAL_SURFACE ( 'NONE', #166, 12.50000000000000000 ) ;
#12 = CC_DESIGN_DATE_AND_TIME_ASSIGNMENT ( #172, #124, ( #144 ) ) ;
#13 = VERTEX_POINT ( 'NONE', #122 ) ;
#14 = DATE_AND_TIME ( #151, #89 ) ;
#15 = CIRCLE ( 'NONE', #17, 12.50000000000000000 ) ;
#16 = VERTEX_POINT ( 'NONE', #105 ) ;
#17 = AXIS2_PLACEMENT_3D ( 'NONE', #134, #170, #154 ) ;
#18 = DIRECTION ( 'NONE',  ( -1.000000000000000000, 0.0000000000000000000, 0.0000000000000000000 ) ) ;
#19 = EDGE_CURVE ( 'NONE', #16, #130, #15, .T. ) ;
#20 = FACE_OUTER_BOUND ( 'NONE', #63, .T. ) ;
#21 = PERSON_AND_ORGANIZATION_ROLE ( 'creator' ) ;
#22 = ORIENTED_EDGE ( 'NONE', *, *, #161, .T. ) ;
#23 = ADVANCED_FACE ( 'NONE', ( #129 ), #11, .T. ) ;
#24 = LOCAL_TIME ( 8, 25, 2.000000000000000000, #66 ) ;
#25 = EDGE_CURVE ( 'NONE', #104, #13, #101, .T. ) ;
#26 = ORIENTED_EDGE ( 'NONE', *, *, #25, .T. ) ;
#27 = APPROVAL ( #68, 'UNSPECIFIED' ) ;
#28 = APPROVAL_PERSON_ORGANIZATION ( #1, #27, #83 ) ;
#29 = CARTESIAN_POINT ( 'NONE',  ( 12.50000000000000000, 1.530808498934191500E-015, 1.000000000000000000 ) ) ;
#30 = DIRECTION ( 'NONE',  ( 0.0000000000000000000, 0.0000000000000000000, 1.000000000000000000 ) ) ;
#31 = DIRECTION ( 'NONE',  ( 1.000000000000000000, 0.0000000000000000000, -0.0000000000000000000 ) ) ;
#32 = EDGE_LOOP ( 'NONE', ( #93, #139, #22, #52 ) ) ;
#33 = APPLICATION_CONTEXT ( 'configuration controlled 3d designs of mechanical parts and assemblies' ) ;
#34 = CALENDAR_DATE ( 2017, 1, 2 ) ;
#35 = PRODUCT_DEFINITION_FORMATION_WITH_SPECIFIED_SOURCE ( 'ANY', '', #54, .NOT_KNOWN. ) ;
#36 = PERSON_AND_ORGANIZATION_ROLE ( 'classification_officer' ) ;
#37 = DATE_AND_TIME ( #77, #114 ) ;
#38 = CC_DESIGN_APPROVAL ( #27, ( #144 ) ) ;
#39 = PERSON_AND_ORGANIZATION ( #98, #7 ) ;
#40 = DESIGN_CONTEXT ( 'detailed design', #109, 'design' ) ;
#41 = FACE_OUTER_BOUND ( 'NONE', #32, .T. ) ;
#42 = DIRECTION ( 'NONE',  ( 0.0000000000000000000, 0.0000000000000000000, 1.000000000000000000 ) ) ;
#43 = CC_DESIGN_DATE_AND_TIME_ASSIGNMENT ( #45, #171, ( #174 ) ) ;
#44 = CARTESIAN_POINT ( 'NONE',  ( -12.50000000000000000, 0.0000000000000000000, 1.000000000000000000 ) ) ;
#45 = DATE_AND_TIME ( #103, #127 ) ;
#46 = CIRCLE ( 'NONE', #57, 12.50000000000000000 ) ;
#47 = DIRECTION ( 'NONE',  ( -0.0000000000000000000, -0.0000000000000000000, -1.000000000000000000 ) ) ;
#48 = PRODUCT_RELATED_PRODUCT_CATEGORY ( 'detail', '', ( #54 ) ) ;
#49 =( LENGTH_UNIT ( ) NAMED_UNIT ( * ) SI_UNIT ( .MILLI., .METRE. ) );
#50 = ORIENTED_EDGE ( 'NONE', *, *, #62, .T. ) ;
#51 = CC_DESIGN_PERSON_AND_ORGANIZATION_ASSIGNMENT ( #135, #36, ( #144 ) ) ;
#52 = ORIENTED_EDGE ( 'NONE', *, *, #67, .F. ) ;
#53 = APPROVAL_STATUS ( 'not_yet_approved' ) ;
#54 = PRODUCT ( 'Web Model 68512', 'Web Model 68512', '', ( #148 ) ) ;
#55 = UNCERTAINTY_MEASURE_WITH_UNIT (LENGTH_MEASURE( 1.000000000000000100E-005 ), #49, 'distance_accuracy_value', 'NONE');
#56 = ORIENTED_EDGE ( 'NONE', *, *, #8, .F. ) ;
#57 = AXIS2_PLACEMENT_3D ( 'NONE', #145, #156, #78 ) ;
#58 = ADVANCED_BREP_SHAPE_REPRESENTATION ( 'Web Model 68512', ( #9, #72 ), #131 ) ;
#59 = PERSON_AND_ORGANIZATION ( #98, #7 ) ;
#60 = DIRECTION ( 'NONE',  ( 0.0000000000000000000, 0.0000000000000000000, 1.000000000000000000 ) ) ;
#61 = DIRECTION ( 'NONE',  ( -0.0000000000000000000, -0.0000000000000000000, -1.000000000000000000 ) ) ;
#62 = EDGE_CURVE ( 'NONE', #130, #16, #46, .T. ) ;
#63 = EDGE_LOOP ( 'NONE', ( #164, #157 ) ) ;
#64 = DIRECTION ( 'NONE',  ( 0.0000000000000000000, 0.0000000000000000000, 1.000000000000000000 ) ) ;
#65 = PERSON_AND_ORGANIZATION_ROLE ( 'design_owner' ) ;
#66 = COORDINATED_UNIVERSAL_TIME_OFFSET ( 5, 0, .BEHIND. ) ;
#67 = EDGE_CURVE ( 'NONE', #16, #104, #90, .T. ) ;
#68 = APPROVAL_STATUS ( 'not_yet_approved' ) ;
#69 = ORIENTED_EDGE ( 'NONE', *, *, #19, .F. ) ;
#70 = CC_DESIGN_SECURITY_CLASSIFICATION ( #144, ( #35 ) ) ;
#71 = LOCAL_TIME ( 8, 25, 2.000000000000000000, #74 ) ;
#72 = AXIS2_PLACEMENT_3D ( 'NONE', #80, #76, #126 ) ;
#73 = PERSON_AND_ORGANIZATION ( #98, #7 ) ;
#74 = COORDINATED_UNIVERSAL_TIME_OFFSET ( 5, 0, .BEHIND. ) ;
#75 = AXIS2_PLACEMENT_3D ( 'NONE', #79, #60, #94 ) ;
#76 = DIRECTION ( 'NONE',  ( 0.0000000000000000000, 0.0000000000000000000, 1.000000000000000000 ) ) ;
#77 = CALENDAR_DATE ( 2017, 1, 2 ) ;
#78 = DIRECTION ( 'NONE',  ( 1.000000000000000000, 0.0000000000000000000, 0.0000000000000000000 ) ) ;
#79 = CARTESIAN_POINT ( 'NONE',  ( 0.0000000000000000000, 0.0000000000000000000, 0.0000000000000000000 ) ) ;
#80 = CARTESIAN_POINT ( 'NONE',  ( 0.0000000000000000000, 0.0000000000000000000, 0.0000000000000000000 ) ) ;
#81 = AXIS2_PLACEMENT_3D ( 'NONE', #4, #47, #18 ) ;
#82 = APPROVAL_ROLE ( '' ) ;
#83 = APPROVAL_ROLE ( '' ) ;
#84 = SECURITY_CLASSIFICATION_LEVEL ( 'unclassified' ) ;
#85 = CYLINDRICAL_SURFACE ( 'NONE', #81, 12.50000000000000000 ) ;
#86 = CC_DESIGN_PERSON_AND_ORGANIZATION_ASSIGNMENT ( #73, #123, ( #174 ) ) ;
#87 = VECTOR ( 'NONE', #61, 1000.000000000000000 ) ;
#88 = ADVANCED_FACE ( 'NONE', ( #152 ), #116, .T. ) ;
#89 = LOCAL_TIME ( 8, 25, 2.000000000000000000, #108 ) ;
#90 = LINE ( 'NONE', #44, #150 ) ;
#91 = CLOSED_SHELL ( 'NONE', ( #111, #23, #88, #162 ) ) ;
#92 = CARTESIAN_POINT ( 'NONE',  ( -12.50000000000000000, 0.0000000000000000000, 0.0000000000000000000 ) ) ;
#93 = ORIENTED_EDGE ( 'NONE', *, *, #62, .F. ) ;
#94 = DIRECTION ( 'NONE',  ( 1.000000000000000000, 0.0000000000000000000, 0.0000000000000000000 ) ) ;
#95 = CC_DESIGN_PERSON_AND_ORGANIZATION_ASSIGNMENT ( #132, #140, ( #35 ) ) ;
#96 = DIRECTION ( 'NONE',  ( -0.0000000000000000000, -0.0000000000000000000, -1.000000000000000000 ) ) ;
#97 = DIRECTION ( 'NONE',  ( -1.000000000000000000, 0.0000000000000000000, 0.0000000000000000000 ) ) ;
#98 = PERSON ( 'UNSPECIFIED', 'UNSPECIFIED', 'UNSPECIFIED', ('UNSPECIFIED'), ('UNSPECIFIED'), ('UNSPECIFIED') ) ;
#99 = APPROVAL_DATE_TIME ( #165, #27 ) ;
#100 = COORDINATED_UNIVERSAL_TIME_OFFSET ( 5, 0, .BEHIND. ) ;
#101 = CIRCLE ( 'NONE', #75, 12.50000000000000000 ) ;
#102 = AXIS2_PLACEMENT_3D ( 'NONE', #117, #30, #137 ) ;
#103 = CALENDAR_DATE ( 2017, 1, 2 ) ;
#104 = VERTEX_POINT ( 'NONE', #92 ) ;
#105 = CARTESIAN_POINT ( 'NONE',  ( -12.50000000000000000, 0.0000000000000000000, 1.000000000000000000 ) ) ;
#106 =( NAMED_UNIT ( * ) PLANE_ANGLE_UNIT ( ) SI_UNIT ( $, .RADIAN. ) );
#107 = CARTESIAN_POINT ( 'NONE',  ( 0.0000000000000000000, 0.0000000000000000000, 1.000000000000000000 ) ) ;
#108 = COORDINATED_UNIVERSAL_TIME_OFFSET ( 5, 0, .BEHIND. ) ;
#109 = APPLICATION_CONTEXT ( 'configuration controlled 3d designs of mechanical parts and assemblies' ) ;
#110 = APPROVAL_DATE_TIME ( #37, #133 ) ;
#111 = ADVANCED_FACE ( 'NONE', ( #41 ), #85, .T. ) ;
#112 = PERSON_AND_ORGANIZATION ( #98, #7 ) ;
#113 = AXIS2_PLACEMENT_3D ( 'NONE', #107, #42, #31 ) ;
#114 = LOCAL_TIME ( 8, 25, 2.000000000000000000, #100 ) ;
#115 = PERSON_AND_ORGANIZATION ( #98, #7 ) ;
#116 = PLANE ( 'NONE',  #113 ) ;
#117 = CARTESIAN_POINT ( 'NONE',  ( 0.0000000000000000000, 0.0000000000000000000, 0.0000000000000000000 ) ) ;
#118 = APPROVAL_DATE_TIME ( #14, #159 ) ;
#119 = LINE ( 'NONE', #29, #87 ) ;
#120 =( NAMED_UNIT ( * ) SI_UNIT ( $, .STERADIAN. ) SOLID_ANGLE_UNIT ( ) );
#121 = AXIS2_PLACEMENT_3D ( 'NONE', #167, #64, #168 ) ;
#122 = CARTESIAN_POINT ( 'NONE',  ( 12.50000000000000000, 1.530808498934191500E-015, 0.0000000000000000000 ) ) ;
#123 = PERSON_AND_ORGANIZATION_ROLE ( 'creator' ) ;
#124 = DATE_TIME_ROLE ( 'classification_date' ) ;
#125 = PRODUCT_DEFINITION_SHAPE ( 'NONE', 'NONE',  #174 ) ;
#126 = DIRECTION ( 'NONE',  ( 1.000000000000000000, 0.0000000000000000000, 0.0000000000000000000 ) ) ;
#127 = LOCAL_TIME ( 8, 25, 2.000000000000000000, #143 ) ;
#128 = CC_DESIGN_PERSON_AND_ORGANIZATION_ASSIGNMENT ( #115, #65, ( #54 ) ) ;
#129 = FACE_OUTER_BOUND ( 'NONE', #169, .T. ) ;
#130 = VERTEX_POINT ( 'NONE', #6 ) ;
#131 =( GEOMETRIC_REPRESENTATION_CONTEXT ( 3 ) GLOBAL_UNCERTAINTY_ASSIGNED_CONTEXT ( ( #55 ) ) GLOBAL_UNIT_ASSIGNED_CONTEXT ( ( #49, #106, #120 ) ) REPRESENTATION_CONTEXT ( 'NONE', 'WORKASPACE' ) );
#132 = PERSON_AND_ORGANIZATION ( #98, #7 ) ;
#133 = APPROVAL ( #158, 'UNSPECIFIED' ) ;
#134 = CARTESIAN_POINT ( 'NONE',  ( 0.0000000000000000000, 0.0000000000000000000, 1.000000000000000000 ) ) ;
#135 = PERSON_AND_ORGANIZATION ( #98, #7 ) ;
#136 = APPROVAL_PERSON_ORGANIZATION ( #39, #133, #175 ) ;
#137 = DIRECTION ( 'NONE',  ( 1.000000000000000000, 0.0000000000000000000, -0.0000000000000000000 ) ) ;
#138 = APPLICATION_PROTOCOL_DEFINITION ( 'international standard', 'config_control_design', 1994, #33 ) ;
#139 = ORIENTED_EDGE ( 'NONE', *, *, #8, .T. ) ;
#140 = PERSON_AND_ORGANIZATION_ROLE ( 'design_supplier' ) ;
#141 = CC_DESIGN_APPROVAL ( #133, ( #174 ) ) ;
#142 = CC_DESIGN_APPROVAL ( #159, ( #35 ) ) ;
#143 = COORDINATED_UNIVERSAL_TIME_OFFSET ( 5, 0, .BEHIND. ) ;
#144 = SECURITY_CLASSIFICATION ( '', '', #84 ) ;
#145 = CARTESIAN_POINT ( 'NONE',  ( 0.0000000000000000000, 0.0000000000000000000, 1.000000000000000000 ) ) ;
#146 = CIRCLE ( 'NONE', #121, 12.50000000000000000 ) ;
#147 = DIRECTION ( 'NONE',  ( -0.0000000000000000000, -0.0000000000000000000, -1.000000000000000000 ) ) ;
#148 = MECHANICAL_CONTEXT ( 'NONE', #33, 'mechanical' ) ;
#149 = SHAPE_DEFINITION_REPRESENTATION ( #125, #58 ) ;
#150 = VECTOR ( 'NONE', #147, 1000.000000000000000 ) ;
#151 = CALENDAR_DATE ( 2017, 1, 2 ) ;
#152 = FACE_OUTER_BOUND ( 'NONE', #2, .T. ) ;
#153 = ORIENTED_EDGE ( 'NONE', *, *, #19, .T. ) ;
#154 = DIRECTION ( 'NONE',  ( 1.000000000000000000, 0.0000000000000000000, 0.0000000000000000000 ) ) ;
#155 = CARTESIAN_POINT ( 'NONE',  ( 0.0000000000000000000, 0.0000000000000000000, 1.000000000000000000 ) ) ;
#156 = DIRECTION ( 'NONE',  ( 0.0000000000000000000, 0.0000000000000000000, 1.000000000000000000 ) ) ;
#157 = ORIENTED_EDGE ( 'NONE', *, *, #161, .F. ) ;
#158 = APPROVAL_STATUS ( 'not_yet_approved' ) ;
#159 = APPROVAL ( #53, 'UNSPECIFIED' ) ;
#160 = ORIENTED_EDGE ( 'NONE', *, *, #67, .T. ) ;
#161 = EDGE_CURVE ( 'NONE', #13, #104, #146, .T. ) ;
#162 = ADVANCED_FACE ( 'NONE', ( #20 ), #5, .F. ) ;
#163 = CALENDAR_DATE ( 2017, 1, 2 ) ;
#164 = ORIENTED_EDGE ( 'NONE', *, *, #25, .F. ) ;
#165 = DATE_AND_TIME ( #163, #24 ) ;
#166 = AXIS2_PLACEMENT_3D ( 'NONE', #155, #96, #97 ) ;
#167 = CARTESIAN_POINT ( 'NONE',  ( 0.0000000000000000000, 0.0000000000000000000, 0.0000000000000000000 ) ) ;
#168 = DIRECTION ( 'NONE',  ( 1.000000000000000000, 0.0000000000000000000, 0.0000000000000000000 ) ) ;
#169 = EDGE_LOOP ( 'NONE', ( #56, #69, #160, #26 ) ) ;
#170 = DIRECTION ( 'NONE',  ( 0.0000000000000000000, 0.0000000000000000000, 1.000000000000000000 ) ) ;
#171 = DATE_TIME_ROLE ( 'creation_date' ) ;
#172 = DATE_AND_TIME ( #34, #71 ) ;
#173 = APPLICATION_PROTOCOL_DEFINITION ( 'international standard', 'config_control_design', 1994, #109 ) ;
#174 = PRODUCT_DEFINITION ( 'UNKNOWN', '', #35, #40 ) ;
#175 = APPROVAL_ROLE ( '' ) ;
ENDSEC;
END-ISO-10303-21;
