ISO-10303-21;
HEADER;
FILE_DESCRIPTION (( 'STEP AP203' ),
    '1' );
FILE_NAME ('4329-E0W.STEP',
    '2015-06-17T20:46:47',
    ( 'admin' ),
    ( '' ),
    'SwSTEP 2.0',
    'SolidWorks 2014',
    '' );
FILE_SCHEMA (( 'CONFIG_CONTROL_DESIGN' ));
ENDSEC;

DATA;
#1 = DIRECTION ( 'NONE',  ( -1.000000000000000000, 0.0000000000000000000, 0.0000000000000000000 ) ) ;
#2 = DIRECTION ( 'NONE',  ( 0.0000000000000000000, 0.0000000000000000000, -1.000000000000000000 ) ) ;
#3 = CIRCLE ( 'NONE', #242, 689.7999999999999500 ) ;
#4 = DIRECTION ( 'NONE',  ( 0.0000000000000000000, 0.0000000000000000000, -1.000000000000000000 ) ) ;
#5 = DIRECTION ( 'NONE',  ( -0.7005672224482593100, 8.579474065588124900E-017, 0.7135864116076841000 ) ) ;
#6 = DIRECTION ( 'NONE',  ( -1.000000000000000000, 1.224646799147353200E-016, 0.0000000000000000000 ) ) ;
#7 = AXIS2_PLACEMENT_3D ( 'NONE', #109, #259, #1 ) ;
#8 = DIRECTION ( 'NONE',  ( 0.0000000000000000000, 1.000000000000000000, 0.0000000000000000000 ) ) ;
#9 = DIRECTION ( 'NONE',  ( 0.7005672224483459100, 8.579474065589186100E-017, -0.7135864116075989500 ) ) ;
#10 = ORIENTED_EDGE ( 'NONE', *, *, #80, .T. ) ;
#11 = APPROVAL_STATUS ( 'not_yet_approved' ) ;
#12 = ORIENTED_EDGE ( 'NONE', *, *, #328, .F. ) ;
#13 = PERSON_AND_ORGANIZATION ( #96, #307 ) ;
#14 = LINE ( 'NONE', #28, #58 ) ;
#15 = PERSON_AND_ORGANIZATION_ROLE ( 'creator' ) ;
#16 = DIRECTION ( 'NONE',  ( 1.000000000000000000, 0.0000000000000000000, 0.0000000000000000000 ) ) ;
#17 = CARTESIAN_POINT ( 'NONE',  ( -12.45008766109322500, 0.0000000000000000000, 0.9876360478205947800 ) ) ;
#18 = DIRECTION ( 'NONE',  ( -0.0000000000000000000, -0.0000000000000000000, 1.000000000000000000 ) ) ;
#19 = ORIENTED_EDGE ( 'NONE', *, *, #115, .F. ) ;
#20 = PRODUCT_DEFINITION_FORMATION_WITH_SPECIFIED_SOURCE ( 'ANY', '', #60, .NOT_KNOWN. ) ;
#21 = CALENDAR_DATE ( 2015, 17, 6 ) ;
#22 = APPLICATION_CONTEXT ( 'configuration controlled 3d designs of mechanical parts and assemblies' ) ;
#23 = DIRECTION ( 'NONE',  ( -0.0000000000000000000, -0.0000000000000000000, 1.000000000000000000 ) ) ;
#24 = AXIS2_PLACEMENT_3D ( 'NONE', #214, #6, #184 ) ;
#25 = VERTEX_POINT ( 'NONE', #17 ) ;
#26 = AXIS2_PLACEMENT_3D ( 'NONE', #322, #145, #146 ) ;
#27 = ADVANCED_FACE ( 'NONE', ( #72 ), #289, .T. ) ;
#28 = CARTESIAN_POINT ( 'NONE',  ( -12.45008766109322800, 0.0000000000000000000, 0.9876360478205947800 ) ) ;
#29 = ORIENTED_EDGE ( 'NONE', *, *, #120, .F. ) ;
#30 = FACE_OUTER_BOUND ( 'NONE', #56, .T. ) ;
#31 = CARTESIAN_POINT ( 'NONE',  ( 0.0000000000000000000, 0.0000000000000000000, 0.9876360478205947800 ) ) ;
#32 = DIRECTION ( 'NONE',  ( -1.000000000000000000, 0.0000000000000000000, 0.0000000000000000000 ) ) ;
#33 = EDGE_LOOP ( 'NONE', ( #196, #262, #209, #40, #117 ) ) ;
#34 = CARTESIAN_POINT ( 'NONE',  ( -12.69999999999999900, 1.555301434917138400E-015, 0.7330793922669665000 ) ) ;
#35 = CALENDAR_DATE ( 2015, 17, 6 ) ;
#36 = CC_DESIGN_SECURITY_CLASSIFICATION ( #140, ( #20 ) ) ;
#37 = SPHERICAL_SURFACE ( 'NONE', #300, 689.7999999999999500 ) ;
#38 = DIRECTION ( 'NONE',  ( -0.0000000000000000000, -0.0000000000000000000, 1.000000000000000000 ) ) ;
#39 = DIRECTION ( 'NONE',  ( -0.0000000000000000000, -0.0000000000000000000, 1.000000000000000000 ) ) ;
#40 = ORIENTED_EDGE ( 'NONE', *, *, #243, .T. ) ;
#41 = CARTESIAN_POINT ( 'NONE',  ( 12.45008766109328500, 0.0000000000000000000, -0.9876360478205947800 ) ) ;
#42 = DATE_TIME_ROLE ( 'classification_date' ) ;
#43 = DIRECTION ( 'NONE',  ( -0.0000000000000000000, -0.0000000000000000000, 1.000000000000000000 ) ) ;
#44 = CIRCLE ( 'NONE', #309, 689.7999999999998400 ) ;
#45 = DIRECTION ( 'NONE',  ( 1.000000000000000000, 0.0000000000000000000, 0.0000000000000000000 ) ) ;
#46 = DIRECTION ( 'NONE',  ( -0.0000000000000000000, -0.0000000000000000000, 1.000000000000000000 ) ) ;
#47 = DIRECTION ( 'NONE',  ( -1.000000000000000000, 1.224646799147353200E-016, 0.0000000000000000000 ) ) ;
#48 = ORIENTED_EDGE ( 'NONE', *, *, #278, .F. ) ;
#49 = CIRCLE ( 'NONE', #286, 12.45008766109322500 ) ;
#50 = CARTESIAN_POINT ( 'NONE',  ( 12.45008766109322500, 1.539998717621657900E-015, 0.9876360478205947800 ) ) ;
#51 =( LENGTH_UNIT ( ) NAMED_UNIT ( * ) SI_UNIT ( .MILLI., .METRE. ) );
#52 = EDGE_LOOP ( 'NONE', ( #108, #265, #235, #122, #177 ) ) ;
#53 = PERSON_AND_ORGANIZATION ( #96, #307 ) ;
#54 = VECTOR ( 'NONE', #9, 1000.000000000000100 ) ;
#55 = ADVANCED_FACE ( 'NONE', ( #273 ), #285, .T. ) ;
#56 = EDGE_LOOP ( 'NONE', ( #29, #137, #230, #92 ) ) ;
#57 = ORIENTED_EDGE ( 'NONE', *, *, #310, .F. ) ;
#58 = VECTOR ( 'NONE', #272, 1000.000000000000100 ) ;
#59 = DIRECTION ( 'NONE',  ( -0.0000000000000000000, -0.0000000000000000000, 1.000000000000000000 ) ) ;
#60 = PRODUCT ( '4329-E0W', '4329-E0W', '', ( #340 ) ) ;
#61 = AXIS2_PLACEMENT_3D ( 'NONE', #366, #361, #166 ) ;
#62 = ORIENTED_EDGE ( 'NONE', *, *, #106, .F. ) ;
#63 = CC_DESIGN_PERSON_AND_ORGANIZATION_ASSIGNMENT ( #53, #164, ( #60 ) ) ;
#64 = CONICAL_SURFACE ( 'NONE', #223, 12.69999999999999900, 0.7761920764187149000 ) ;
#65 = PERSON_AND_ORGANIZATION ( #96, #307 ) ;
#66 = CARTESIAN_POINT ( 'NONE',  ( 0.0000000000000000000, 0.0000000000000000000, 0.9876360478205947800 ) ) ;
#67 = EDGE_CURVE ( 'NONE', #134, #133, #280, .T. ) ;
#68 = APPLICATION_PROTOCOL_DEFINITION ( 'international standard', 'config_control_design', 1994, #22 ) ;
#69 = VERTEX_POINT ( 'NONE', #105 ) ;
#70 = APPROVAL_STATUS ( 'not_yet_approved' ) ;
#71 = AXIS2_PLACEMENT_3D ( 'NONE', #331, #38, #162 ) ;
#72 = FACE_OUTER_BOUND ( 'NONE', #102, .T. ) ;
#73 = AXIS2_PLACEMENT_3D ( 'NONE', #303, #39, #89 ) ;
#74 = APPROVAL_PERSON_ORGANIZATION ( #163, #352, #350 ) ;
#75 = CARTESIAN_POINT ( 'NONE',  ( 0.0000000000000000000, 0.0000000000000000000, -0.9876360478205947800 ) ) ;
#76 = DIRECTION ( 'NONE',  ( 0.0000000000000000000, 1.000000000000000000, 0.0000000000000000000 ) ) ;
#77 = APPROVAL ( #11, 'UNSPECIFIED' ) ;
#78 = DATE_AND_TIME ( #171, #138 ) ;
#79 = CARTESIAN_POINT ( 'NONE',  ( 0.0000000000000000000, 12.45008766109333100, 0.9876360478205947800 ) ) ;
#80 = EDGE_CURVE ( 'NONE', #224, #172, #315, .T. ) ;
#81 = CARTESIAN_POINT ( 'NONE',  ( 0.0000000000000000000, 0.0000000000000000000, 1.100000000000000100 ) ) ;
#82 = DIRECTION ( 'NONE',  ( -0.0000000000000000000, -0.0000000000000000000, 1.000000000000000000 ) ) ;
#83 = COORDINATED_UNIVERSAL_TIME_OFFSET ( 5, 0, .BEHIND. ) ;
#84 = CARTESIAN_POINT ( 'NONE',  ( 0.0000000000000000000, 0.0000000000000000000, -0.7330793922669665000 ) ) ;
#85 = CC_DESIGN_APPROVAL ( #77, ( #20 ) ) ;
#86 = ADVANCED_FACE ( 'NONE', ( #311 ), #341, .T. ) ;
#87 = CARTESIAN_POINT ( 'NONE',  ( 0.0000000000000000000, 0.0000000000000000000, -688.6999999999999300 ) ) ;
#88 = APPROVAL_DATE_TIME ( #78, #352 ) ;
#89 = DIRECTION ( 'NONE',  ( 1.000000000000000000, 0.0000000000000000000, 0.0000000000000000000 ) ) ;
#90 = CARTESIAN_POINT ( 'NONE',  ( 0.0000000000000000000, 0.0000000000000000000, 0.7330793922669665000 ) ) ;
#91 = AXIS2_PLACEMENT_3D ( 'NONE', #31, #281, #32 ) ;
#92 = ORIENTED_EDGE ( 'NONE', *, *, #250, .T. ) ;
#93 = ORIENTED_EDGE ( 'NONE', *, *, #367, .F. ) ;
#94 = LINE ( 'NONE', #101, #156 ) ;
#95 = CIRCLE ( 'NONE', #7, 12.45008766109322500 ) ;
#96 = PERSON ( 'UNSPECIFIED', 'UNSPECIFIED', 'UNSPECIFIED', ('UNSPECIFIED'), ('UNSPECIFIED'), ('UNSPECIFIED') ) ;
#97 = AXIS2_PLACEMENT_3D ( 'NONE', #81, #245, #269 ) ;
#98 = CC_DESIGN_PERSON_AND_ORGANIZATION_ASSIGNMENT ( #202, #199, ( #140 ) ) ;
#99 = CARTESIAN_POINT ( 'NONE',  ( 0.0000000000000000000, 12.45008766109336300, -0.9876360478205947800 ) ) ;
#100 = PERSON_AND_ORGANIZATION ( #96, #307 ) ;
#101 = CARTESIAN_POINT ( 'NONE',  ( 12.69999999999999900, 0.0000000000000000000, -0.7330793922669665000 ) ) ;
#102 = EDGE_LOOP ( 'NONE', ( #127, #326, #240, #316 ) ) ;
#103 = ORIENTED_EDGE ( 'NONE', *, *, #324, .F. ) ;
#104 = AXIS2_PLACEMENT_3D ( 'NONE', #355, #47, #254 ) ;
#105 = CARTESIAN_POINT ( 'NONE',  ( -1.524696000326190700E-015, -12.45008766109333100, 0.9876360478205947800 ) ) ;
#106 = EDGE_CURVE ( 'NONE', #148, #221, #337, .T. ) ;
#107 = ORIENTED_EDGE ( 'NONE', *, *, #67, .T. ) ;
#108 = ORIENTED_EDGE ( 'NONE', *, *, #205, .F. ) ;
#109 = CARTESIAN_POINT ( 'NONE',  ( 0.0000000000000000000, 0.0000000000000000000, 0.9876360478205947800 ) ) ;
#110 = ORIENTED_EDGE ( 'NONE', *, *, #288, .T. ) ;
#111 = CARTESIAN_POINT ( 'NONE',  ( 12.69999999999999900, 0.0000000000000000000, -0.7330793922669665000 ) ) ;
#112 = FACE_OUTER_BOUND ( 'NONE', #121, .T. ) ;
#113 = DATE_AND_TIME ( #182, #123 ) ;
#114 = DIRECTION ( 'NONE',  ( 0.0000000000000000000, 0.0000000000000000000, -1.000000000000000000 ) ) ;
#115 = EDGE_CURVE ( 'NONE', #169, #206, #323, .T. ) ;
#116 = CARTESIAN_POINT ( 'NONE',  ( -12.69999999999999900, 1.555301434917138400E-015, -0.7330793922669665000 ) ) ;
#117 = ORIENTED_EDGE ( 'NONE', *, *, #234, .F. ) ;
#118 = DIRECTION ( 'NONE',  ( 0.0000000000000000000, 0.0000000000000000000, -1.000000000000000000 ) ) ;
#119 = CARTESIAN_POINT ( 'NONE',  ( 0.0000000000000000000, 0.0000000000000000000, 0.9876360478205947800 ) ) ;
#120 = EDGE_CURVE ( 'NONE', #69, #343, #299, .T. ) ;
#121 = EDGE_LOOP ( 'NONE', ( #187, #216, #107, #244 ) ) ;
#122 = ORIENTED_EDGE ( 'NONE', *, *, #226, .F. ) ;
#123 = LOCAL_TIME ( 16, 46, 47.00000000000000000, #149 ) ;
#124 = FACE_OUTER_BOUND ( 'NONE', #33, .T. ) ;
#125 = VERTEX_POINT ( 'NONE', #50 ) ;
#126 = ORIENTED_EDGE ( 'NONE', *, *, #243, .F. ) ;
#127 = ORIENTED_EDGE ( 'NONE', *, *, #278, .T. ) ;
#128 = AXIS2_PLACEMENT_3D ( 'NONE', #84, #23, #227 ) ;
#129 = CARTESIAN_POINT ( 'NONE',  ( 0.0000000000000000000, 0.0000000000000000000, -688.6999999999999300 ) ) ;
#130 = VERTEX_POINT ( 'NONE', #179 ) ;
#131 = DIRECTION ( 'NONE',  ( -1.000000000000000000, 0.0000000000000000000, 0.0000000000000000000 ) ) ;
#132 = CARTESIAN_POINT ( 'NONE',  ( 12.69999999999999900, 0.0000000000000000000, 1.100000000000000100 ) ) ;
#133 = VERTEX_POINT ( 'NONE', #173 ) ;
#134 = VERTEX_POINT ( 'NONE', #198 ) ;
#135 = APPROVAL_DATE_TIME ( #176, #327 ) ;
#136 = AXIS2_PLACEMENT_3D ( 'NONE', #119, #59, #175 ) ;
#137 = ORIENTED_EDGE ( 'NONE', *, *, #266, .T. ) ;
#138 = LOCAL_TIME ( 16, 46, 47.00000000000000000, #282 ) ;
#139 = APPROVAL_ROLE ( '' ) ;
#140 = SECURITY_CLASSIFICATION ( '', '', #229 ) ;
#141 = APPROVAL_STATUS ( 'not_yet_approved' ) ;
#142 = DIRECTION ( 'NONE',  ( 1.000000000000000000, 0.0000000000000000000, 0.0000000000000000000 ) ) ;
#143 = LINE ( 'NONE', #298, #295 ) ;
#144 = DIRECTION ( 'NONE',  ( -0.0000000000000000000, -0.0000000000000000000, 1.000000000000000000 ) ) ;
#145 = DIRECTION ( 'NONE',  ( 0.0000000000000000000, 0.0000000000000000000, 1.000000000000000000 ) ) ;
#146 = DIRECTION ( 'NONE',  ( 1.000000000000000000, 0.0000000000000000000, 0.0000000000000000000 ) ) ;
#147 = EDGE_LOOP ( 'NONE', ( #201, #165, #330, #342 ) ) ;
#148 = VERTEX_POINT ( 'NONE', #116 ) ;
#149 = COORDINATED_UNIVERSAL_TIME_OFFSET ( 5, 0, .BEHIND. ) ;
#150 = APPROVAL_ROLE ( '' ) ;
#151 = ADVANCED_FACE ( 'NONE', ( #124 ), #64, .T. ) ;
#152 = EDGE_LOOP ( 'NONE', ( #57, #110, #48, #126, #19 ) ) ;
#153 = MANIFOLD_SOLID_BREP ( '4329-001-1-solid1', #358 ) ;
#154 = DIRECTION ( 'NONE',  ( -1.000000000000000000, 0.0000000000000000000, 0.0000000000000000000 ) ) ;
#155 = APPROVAL_DATE_TIME ( #275, #77 ) ;
#156 = VECTOR ( 'NONE', #294, 1000.000000000000000 ) ;
#157 = CARTESIAN_POINT ( 'NONE',  ( 0.0000000000000000000, 0.0000000000000000000, 688.6999999999999300 ) ) ;
#158 = CALENDAR_DATE ( 2015, 17, 6 ) ;
#159 = CARTESIAN_POINT ( 'NONE',  ( 0.0000000000000000000, 0.0000000000000000000, -0.9876360478205947800 ) ) ;
#160 = CARTESIAN_POINT ( 'NONE',  ( -12.69999999999999900, 1.555301434917138400E-015, 1.100000000000000100 ) ) ;
#161 = CC_DESIGN_PERSON_AND_ORGANIZATION_ASSIGNMENT ( #65, #364, ( #20 ) ) ;
#162 = DIRECTION ( 'NONE',  ( -1.000000000000000000, 0.0000000000000000000, 0.0000000000000000000 ) ) ;
#163 = PERSON_AND_ORGANIZATION ( #96, #307 ) ;
#164 = PERSON_AND_ORGANIZATION_ROLE ( 'design_owner' ) ;
#165 = ORIENTED_EDGE ( 'NONE', *, *, #356, .T. ) ;
#166 = DIRECTION ( 'NONE',  ( 0.0000000000000000000, 1.000000000000000000, 0.0000000000000000000 ) ) ;
#167 = DIRECTION ( 'NONE',  ( -1.000000000000000000, 0.0000000000000000000, 0.0000000000000000000 ) ) ;
#168 = ADVANCED_FACE ( 'NONE', ( #251 ), #344, .T. ) ;
#169 = VERTEX_POINT ( 'NONE', #99 ) ;
#170 = CC_DESIGN_DATE_AND_TIME_ASSIGNMENT ( #218, #274, ( #305 ) ) ;
#171 = CALENDAR_DATE ( 2015, 17, 6 ) ;
#172 = VERTEX_POINT ( 'NONE', #313 ) ;
#173 = CARTESIAN_POINT ( 'NONE',  ( -12.45008766109328500, 1.539998717621661700E-015, -0.9876360478205947800 ) ) ;
#174 = DIRECTION ( 'NONE',  ( 0.0000000000000000000, 0.0000000000000000000, -1.000000000000000000 ) ) ;
#175 = DIRECTION ( 'NONE',  ( -1.000000000000000000, 0.0000000000000000000, 0.0000000000000000000 ) ) ;
#176 = DATE_AND_TIME ( #35, #320 ) ;
#177 = ORIENTED_EDGE ( 'NONE', *, *, #238, .F. ) ;
#178 = DIRECTION ( 'NONE',  ( 1.000000000000000000, 0.0000000000000000000, 0.0000000000000000000 ) ) ;
#179 = CARTESIAN_POINT ( 'NONE',  ( 0.0000000000000000000, 4.223806810259220600E-014, -1.099999999999989900 ) ) ;
#180 = ORIENTED_EDGE ( 'NONE', *, *, #356, .F. ) ;
#181 = AXIS2_PLACEMENT_3D ( 'NONE', #246, #43, #284 ) ;
#182 = CALENDAR_DATE ( 2015, 17, 6 ) ;
#183 = DIRECTION ( 'NONE',  ( 1.000000000000000000, 0.0000000000000000000, 0.0000000000000000000 ) ) ;
#184 = DIRECTION ( 'NONE',  ( -1.224646799147353200E-016, -1.000000000000000000, 0.0000000000000000000 ) ) ;
#185 = CC_DESIGN_PERSON_AND_ORGANIZATION_ASSIGNMENT ( #13, #15, ( #305 ) ) ;
#186 = AXIS2_PLACEMENT_3D ( 'NONE', #359, #333, #347 ) ;
#187 = ORIENTED_EDGE ( 'NONE', *, *, #253, .F. ) ;
#188 = ORIENTED_EDGE ( 'NONE', *, *, #266, .F. ) ;
#189 = ADVANCED_BREP_SHAPE_REPRESENTATION ( '4329-E0W', ( #153, #26 ), #365 ) ;
#190 = CARTESIAN_POINT ( 'NONE',  ( 0.0000000000000000000, 0.0000000000000000000, 0.9876360478205947800 ) ) ;
#191 = FACE_OUTER_BOUND ( 'NONE', #152, .T. ) ;
#192 = AXIS2_PLACEMENT_3D ( 'NONE', #75, #2, #142 ) ;
#193 = DIRECTION ( 'NONE',  ( 0.0000000000000000000, 0.0000000000000000000, -1.000000000000000000 ) ) ;
#194 = VERTEX_POINT ( 'NONE', #79 ) ;
#195 = DIRECTION ( 'NONE',  ( 1.000000000000000000, -0.0000000000000000000, 0.0000000000000000000 ) ) ;
#196 = ORIENTED_EDGE ( 'NONE', *, *, #288, .F. ) ;
#197 = ADVANCED_FACE ( 'NONE', ( #191 ), #290, .T. ) ;
#198 = CARTESIAN_POINT ( 'NONE',  ( -1.524696000326194200E-015, -12.45008766109336300, -0.9876360478205947800 ) ) ;
#199 = PERSON_AND_ORGANIZATION_ROLE ( 'classification_officer' ) ;
#200 = ORIENTED_EDGE ( 'NONE', *, *, #115, .T. ) ;
#201 = ORIENTED_EDGE ( 'NONE', *, *, #238, .T. ) ;
#202 = PERSON_AND_ORGANIZATION ( #96, #307 ) ;
#203 = UNCERTAINTY_MEASURE_WITH_UNIT (LENGTH_MEASURE( 1.000000000000000100E-005 ), #51, 'distance_accuracy_value', 'NONE');
#204 = EDGE_LOOP ( 'NONE', ( #93, #263, #200, #211 ) ) ;
#205 = EDGE_CURVE ( 'NONE', #125, #194, #302, .T. ) ;
#206 = VERTEX_POINT ( 'NONE', #41 ) ;
#207 = SHAPE_DEFINITION_REPRESENTATION ( #354, #189 ) ;
#208 = EDGE_CURVE ( 'NONE', #206, #134, #222, .T. ) ;
#209 = ORIENTED_EDGE ( 'NONE', *, *, #208, .F. ) ;
#210 = EDGE_LOOP ( 'NONE', ( #12, #188, #180, #215, #103 ) ) ;
#211 = ORIENTED_EDGE ( 'NONE', *, *, #208, .T. ) ;
#212 = LOCAL_TIME ( 16, 46, 47.00000000000000000, #83 ) ;
#213 = CIRCLE ( 'NONE', #104, 689.7999999999999500 ) ;
#214 = CARTESIAN_POINT ( 'NONE',  ( 0.0000000000000000000, 0.0000000000000000000, -688.6999999999999300 ) ) ;
#215 = ORIENTED_EDGE ( 'NONE', *, *, #226, .T. ) ;
#216 = ORIENTED_EDGE ( 'NONE', *, *, #367, .T. ) ;
#217 = CIRCLE ( 'NONE', #71, 12.45008766109322500 ) ;
#218 = DATE_AND_TIME ( #158, #363 ) ;
#219 = CC_DESIGN_PERSON_AND_ORGANIZATION_ASSIGNMENT ( #100, #349, ( #20 ) ) ;
#220 = CARTESIAN_POINT ( 'NONE',  ( 0.0000000000000000000, 0.0000000000000000000, -0.7330793922669665000 ) ) ;
#221 = VERTEX_POINT ( 'NONE', #34 ) ;
#222 = CIRCLE ( 'NONE', #249, 12.45008766109328500 ) ;
#223 = AXIS2_PLACEMENT_3D ( 'NONE', #287, #241, #338 ) ;
#224 = VERTEX_POINT ( 'NONE', #111 ) ;
#225 = CARTESIAN_POINT ( 'NONE',  ( 0.0000000000000000000, 0.0000000000000000000, 0.7330793922669665000 ) ) ;
#226 = EDGE_CURVE ( 'NONE', #25, #221, #14, .T. ) ;
#227 = DIRECTION ( 'NONE',  ( 1.000000000000000000, 0.0000000000000000000, 0.0000000000000000000 ) ) ;
#228 = ORIENTED_EDGE ( 'NONE', *, *, #324, .T. ) ;
#229 = SECURITY_CLASSIFICATION_LEVEL ( 'unclassified' ) ;
#230 = ORIENTED_EDGE ( 'NONE', *, *, #205, .T. ) ;
#231 = AXIS2_PLACEMENT_3D ( 'NONE', #66, #296, #131 ) ;
#232 = DIRECTION ( 'NONE',  ( 0.0000000000000000000, 0.0000000000000000000, -1.000000000000000000 ) ) ;
#233 = CC_DESIGN_APPROVAL ( #327, ( #305 ) ) ;
#234 = EDGE_CURVE ( 'NONE', #148, #224, #247, .T. ) ;
#235 = ORIENTED_EDGE ( 'NONE', *, *, #357, .F. ) ;
#236 = APPROVAL_PERSON_ORGANIZATION ( #267, #77, #150 ) ;
#237 = CARTESIAN_POINT ( 'NONE',  ( 0.0000000000000000000, 0.0000000000000000000, 688.6999999999999300 ) ) ;
#238 = EDGE_CURVE ( 'NONE', #194, #25, #95, .T. ) ;
#239 = AXIS2_PLACEMENT_3D ( 'NONE', #157, #167, #76 ) ;
#240 = ORIENTED_EDGE ( 'NONE', *, *, #357, .T. ) ;
#241 = DIRECTION ( 'NONE',  ( -0.0000000000000000000, -0.0000000000000000000, 1.000000000000000000 ) ) ;
#242 = AXIS2_PLACEMENT_3D ( 'NONE', #237, #16, #193 ) ;
#243 = EDGE_CURVE ( 'NONE', #206, #224, #94, .T. ) ;
#244 = ORIENTED_EDGE ( 'NONE', *, *, #310, .T. ) ;
#245 = DIRECTION ( 'NONE',  ( -0.0000000000000000000, -0.0000000000000000000, 1.000000000000000000 ) ) ;
#246 = CARTESIAN_POINT ( 'NONE',  ( 0.0000000000000000000, 0.0000000000000000000, 1.100000000000000100 ) ) ;
#247 = CIRCLE ( 'NONE', #128, 12.69999999999999900 ) ;
#248 = DIRECTION ( 'NONE',  ( -1.000000000000000000, 0.0000000000000000000, 0.0000000000000000000 ) ) ;
#249 = AXIS2_PLACEMENT_3D ( 'NONE', #255, #114, #183 ) ;
#250 = EDGE_CURVE ( 'NONE', #194, #343, #44, .T. ) ;
#251 = FACE_OUTER_BOUND ( 'NONE', #260, .T. ) ;
#252 = CARTESIAN_POINT ( 'NONE',  ( 0.0000000000000000000, 0.0000000000000000000, -0.9876360478205947800 ) ) ;
#253 = EDGE_CURVE ( 'NONE', #130, #169, #3, .T. ) ;
#254 = DIRECTION ( 'NONE',  ( -1.224646799147353200E-016, -1.000000000000000000, 0.0000000000000000000 ) ) ;
#255 = CARTESIAN_POINT ( 'NONE',  ( 0.0000000000000000000, 0.0000000000000000000, -0.9876360478205947800 ) ) ;
#256 = DIRECTION ( 'NONE',  ( -1.000000000000000000, 0.0000000000000000000, 0.0000000000000000000 ) ) ;
#257 = LINE ( 'NONE', #353, #54 ) ;
#258 = ADVANCED_FACE ( 'NONE', ( #360 ), #292, .T. ) ;
#259 = DIRECTION ( 'NONE',  ( -0.0000000000000000000, -0.0000000000000000000, 1.000000000000000000 ) ) ;
#260 = EDGE_LOOP ( 'NONE', ( #62, #312, #10, #228 ) ) ;
#261 = SPHERICAL_SURFACE ( 'NONE', #186, 689.7999999999999500 ) ;
#262 = ORIENTED_EDGE ( 'NONE', *, *, #67, .F. ) ;
#263 = ORIENTED_EDGE ( 'NONE', *, *, #253, .T. ) ;
#264 = DESIGN_CONTEXT ( 'detailed design', #22, 'design' ) ;
#265 = ORIENTED_EDGE ( 'NONE', *, *, #328, .T. ) ;
#266 = EDGE_CURVE ( 'NONE', #69, #125, #217, .T. ) ;
#267 = PERSON_AND_ORGANIZATION ( #96, #307 ) ;
#268 = CIRCLE ( 'NONE', #304, 12.69999999999999900 ) ;
#269 = DIRECTION ( 'NONE',  ( 1.000000000000000000, 0.0000000000000000000, 0.0000000000000000000 ) ) ;
#270 = DIRECTION ( 'NONE',  ( 0.0000000000000000000, 0.0000000000000000000, -1.000000000000000000 ) ) ;
#271 = COORDINATED_UNIVERSAL_TIME_OFFSET ( 5, 0, .BEHIND. ) ;
#272 = DIRECTION ( 'NONE',  ( -0.7005672224483459100, 0.0000000000000000000, -0.7135864116075989500 ) ) ;
#273 = FACE_OUTER_BOUND ( 'NONE', #204, .T. ) ;
#274 = DATE_TIME_ROLE ( 'creation_date' ) ;
#275 = DATE_AND_TIME ( #21, #212 ) ;
#276 = CIRCLE ( 'NONE', #73, 12.69999999999999900 ) ;
#277 = PERSON_AND_ORGANIZATION ( #96, #307 ) ;
#278 = EDGE_CURVE ( 'NONE', #224, #148, #276, .T. ) ;
#279 =( NAMED_UNIT ( * ) SI_UNIT ( $, .STERADIAN. ) SOLID_ANGLE_UNIT ( ) );
#280 = CIRCLE ( 'NONE', #339, 12.45008766109328500 ) ;
#281 = DIRECTION ( 'NONE',  ( 0.0000000000000000000, 0.0000000000000000000, -1.000000000000000000 ) ) ;
#282 = COORDINATED_UNIVERSAL_TIME_OFFSET ( 5, 0, .BEHIND. ) ;
#283 = ADVANCED_FACE ( 'NONE', ( #112 ), #351, .T. ) ;
#284 = DIRECTION ( 'NONE',  ( 1.000000000000000000, 0.0000000000000000000, 0.0000000000000000000 ) ) ;
#285 = SPHERICAL_SURFACE ( 'NONE', #239, 689.7999999999999500 ) ;
#286 = AXIS2_PLACEMENT_3D ( 'NONE', #190, #82, #248 ) ;
#287 = CARTESIAN_POINT ( 'NONE',  ( 0.0000000000000000000, 0.0000000000000000000, -0.7330793922669665000 ) ) ;
#288 = EDGE_CURVE ( 'NONE', #133, #148, #143, .T. ) ;
#289 = CYLINDRICAL_SURFACE ( 'NONE', #181, 12.69999999999999900 ) ;
#290 = CONICAL_SURFACE ( 'NONE', #293, 12.69999999999999900, 0.7761920764187149000 ) ;
#291 = CC_DESIGN_DATE_AND_TIME_ASSIGNMENT ( #113, #42, ( #140 ) ) ;
#292 = CONICAL_SURFACE ( 'NONE', #91, 12.45008766109322800, 0.7761920764188363600 ) ;
#293 = AXIS2_PLACEMENT_3D ( 'NONE', #220, #144, #178 ) ;
#294 = DIRECTION ( 'NONE',  ( 0.7005672224482593100, 0.0000000000000000000, 0.7135864116076841000 ) ) ;
#295 = VECTOR ( 'NONE', #5, 1000.000000000000000 ) ;
#296 = DIRECTION ( 'NONE',  ( 0.0000000000000000000, 0.0000000000000000000, -1.000000000000000000 ) ) ;
#297 = COORDINATED_UNIVERSAL_TIME_OFFSET ( 5, 0, .BEHIND. ) ;
#298 = CARTESIAN_POINT ( 'NONE',  ( -12.69999999999999900, 1.555301434917138400E-015, -0.7330793922669665000 ) ) ;
#299 = CIRCLE ( 'NONE', #24, 689.7999999999999500 ) ;
#300 = AXIS2_PLACEMENT_3D ( 'NONE', #87, #154, #8 ) ;
#301 = APPROVAL_PERSON_ORGANIZATION ( #277, #327, #139 ) ;
#302 = CIRCLE ( 'NONE', #136, 12.45008766109322500 ) ;
#303 = CARTESIAN_POINT ( 'NONE',  ( 0.0000000000000000000, 0.0000000000000000000, -0.7330793922669665000 ) ) ;
#304 = AXIS2_PLACEMENT_3D ( 'NONE', #225, #232, #256 ) ;
#305 = PRODUCT_DEFINITION ( 'UNKNOWN', '', #20, #264 ) ;
#306 = ADVANCED_FACE ( 'NONE', ( #335 ), #37, .T. ) ;
#307 = ORGANIZATION ( 'UNSPECIFIED', 'UNSPECIFIED', '' ) ;
#308 = CIRCLE ( 'NONE', #317, 12.69999999999999900 ) ;
#309 = AXIS2_PLACEMENT_3D ( 'NONE', #129, #195, #174 ) ;
#310 = EDGE_CURVE ( 'NONE', #133, #169, #318, .T. ) ;
#311 = FACE_OUTER_BOUND ( 'NONE', #52, .T. ) ;
#312 = ORIENTED_EDGE ( 'NONE', *, *, #234, .T. ) ;
#313 = CARTESIAN_POINT ( 'NONE',  ( 12.69999999999999900, 0.0000000000000000000, 0.7330793922669665000 ) ) ;
#314 = AXIS2_PLACEMENT_3D ( 'NONE', #252, #270, #321 ) ;
#315 = LINE ( 'NONE', #132, #325 ) ;
#316 = ORIENTED_EDGE ( 'NONE', *, *, #80, .F. ) ;
#317 = AXIS2_PLACEMENT_3D ( 'NONE', #90, #118, #336 ) ;
#318 = CIRCLE ( 'NONE', #314, 12.45008766109328500 ) ;
#319 =( NAMED_UNIT ( * ) PLANE_ANGLE_UNIT ( ) SI_UNIT ( $, .RADIAN. ) );
#320 = LOCAL_TIME ( 16, 46, 47.00000000000000000, #297 ) ;
#321 = DIRECTION ( 'NONE',  ( 1.000000000000000000, 0.0000000000000000000, 0.0000000000000000000 ) ) ;
#322 = CARTESIAN_POINT ( 'NONE',  ( 0.0000000000000000000, 0.0000000000000000000, 0.0000000000000000000 ) ) ;
#323 = CIRCLE ( 'NONE', #192, 12.45008766109328500 ) ;
#324 = EDGE_CURVE ( 'NONE', #172, #221, #308, .T. ) ;
#325 = VECTOR ( 'NONE', #46, 1000.000000000000000 ) ;
#326 = ORIENTED_EDGE ( 'NONE', *, *, #106, .T. ) ;
#327 = APPROVAL ( #70, 'UNSPECIFIED' ) ;
#328 = EDGE_CURVE ( 'NONE', #125, #172, #257, .T. ) ;
#329 = VECTOR ( 'NONE', #18, 1000.000000000000000 ) ;
#330 = ORIENTED_EDGE ( 'NONE', *, *, #120, .T. ) ;
#331 = CARTESIAN_POINT ( 'NONE',  ( 0.0000000000000000000, 0.0000000000000000000, 0.9876360478205947800 ) ) ;
#332 = CC_DESIGN_APPROVAL ( #352, ( #140 ) ) ;
#333 = DIRECTION ( 'NONE',  ( -1.000000000000000000, 0.0000000000000000000, 0.0000000000000000000 ) ) ;
#334 = ADVANCED_FACE ( 'NONE', ( #30 ), #261, .T. ) ;
#335 = FACE_OUTER_BOUND ( 'NONE', #147, .T. ) ;
#336 = DIRECTION ( 'NONE',  ( -1.000000000000000000, 0.0000000000000000000, 0.0000000000000000000 ) ) ;
#337 = LINE ( 'NONE', #160, #329 ) ;
#338 = DIRECTION ( 'NONE',  ( 1.000000000000000000, 0.0000000000000000000, 0.0000000000000000000 ) ) ;
#339 = AXIS2_PLACEMENT_3D ( 'NONE', #159, #4, #45 ) ;
#340 = MECHANICAL_CONTEXT ( 'NONE', #348, 'mechanical' ) ;
#341 = CONICAL_SURFACE ( 'NONE', #231, 12.45008766109322800, 0.7761920764188363600 ) ;
#342 = ORIENTED_EDGE ( 'NONE', *, *, #250, .F. ) ;
#343 = VERTEX_POINT ( 'NONE', #345 ) ;
#344 = CYLINDRICAL_SURFACE ( 'NONE', #97, 12.69999999999999900 ) ;
#345 = CARTESIAN_POINT ( 'NONE',  ( 0.0000000000000000000, 4.223806810259220600E-014, 1.099999999999989900 ) ) ;
#346 = PRODUCT_RELATED_PRODUCT_CATEGORY ( 'detail', '', ( #60 ) ) ;
#347 = DIRECTION ( 'NONE',  ( 0.0000000000000000000, 1.000000000000000000, 0.0000000000000000000 ) ) ;
#348 = APPLICATION_CONTEXT ( 'configuration controlled 3d designs of mechanical parts and assemblies' ) ;
#349 = PERSON_AND_ORGANIZATION_ROLE ( 'design_supplier' ) ;
#350 = APPROVAL_ROLE ( '' ) ;
#351 = SPHERICAL_SURFACE ( 'NONE', #61, 689.7999999999999500 ) ;
#352 = APPROVAL ( #141, 'UNSPECIFIED' ) ;
#353 = CARTESIAN_POINT ( 'NONE',  ( 12.45008766109322800, 1.524696000326177800E-015, 0.9876360478205947800 ) ) ;
#354 = PRODUCT_DEFINITION_SHAPE ( 'NONE', 'NONE',  #305 ) ;
#355 = CARTESIAN_POINT ( 'NONE',  ( 0.0000000000000000000, 0.0000000000000000000, 688.6999999999999300 ) ) ;
#356 = EDGE_CURVE ( 'NONE', #25, #69, #49, .T. ) ;
#357 = EDGE_CURVE ( 'NONE', #221, #172, #268, .T. ) ;
#358 = CLOSED_SHELL ( 'NONE', ( #86, #197, #283, #27, #306, #334, #168, #55, #151, #258 ) ) ;
#359 = CARTESIAN_POINT ( 'NONE',  ( 0.0000000000000000000, 0.0000000000000000000, -688.6999999999999300 ) ) ;
#360 = FACE_OUTER_BOUND ( 'NONE', #210, .T. ) ;
#361 = DIRECTION ( 'NONE',  ( -1.000000000000000000, 0.0000000000000000000, 0.0000000000000000000 ) ) ;
#362 = APPLICATION_PROTOCOL_DEFINITION ( 'international standard', 'config_control_design', 1994, #348 ) ;
#363 = LOCAL_TIME ( 16, 46, 47.00000000000000000, #271 ) ;
#364 = PERSON_AND_ORGANIZATION_ROLE ( 'creator' ) ;
#365 =( GEOMETRIC_REPRESENTATION_CONTEXT ( 3 ) GLOBAL_UNCERTAINTY_ASSIGNED_CONTEXT ( ( #203 ) ) GLOBAL_UNIT_ASSIGNED_CONTEXT ( ( #51, #319, #279 ) ) REPRESENTATION_CONTEXT ( 'NONE', 'WORKASPACE' ) );
#366 = CARTESIAN_POINT ( 'NONE',  ( 0.0000000000000000000, 0.0000000000000000000, 688.6999999999999300 ) ) ;
#367 = EDGE_CURVE ( 'NONE', #130, #134, #213, .T. ) ;
ENDSEC;
END-ISO-10303-21;
