ISO-10303-21;
HEADER;
FILE_DESCRIPTION (( 'STEP AP203' ),
    '1' );
FILE_NAME ('Web Model 19822_19822.step',
    '2022-01-03T21:57:26',
    ( '' ),
    ( '' ),
    'SwSTEP 2.0',
    'SolidWorks 2018',
    '' );
FILE_SCHEMA (( 'CONFIG_CONTROL_DESIGN' ));
ENDSEC;

DATA;
#1 = LINE ( 'NONE', #120, #140 ) ;
#2 = APPLICATION_PROTOCOL_DEFINITION ( 'international standard', 'config_control_design', 1994, #127 ) ;
#3 = PERSON_AND_ORGANIZATION_ROLE ( 'creator' ) ;
#4 = PERSON_AND_ORGANIZATION_ROLE ( 'classification_officer' ) ;
#5 = CALENDAR_DATE ( 2022, 3, 1 ) ;
#6 = ORIENTED_EDGE ( 'NONE', *, *, #167, .F. ) ;
#7 = ADVANCED_FACE ( 'NONE', ( #168 ), #159, .T. ) ;
#8 = APPROVAL ( #84, 'UNSPECIFIED' ) ;
#9 = EDGE_CURVE ( 'NONE', #22, #56, #92, .T. ) ;
#10 = LOCAL_TIME ( 16, 57, 26.00000000000000000, #171 ) ;
#11 = VECTOR ( 'NONE', #61, 1000.000000000000000 ) ;
#12 = DIRECTION ( 'NONE',  ( 0.000000000000000000, 0.000000000000000000, 1.000000000000000000 ) ) ;
#13 = EDGE_CURVE ( 'NONE', #107, #56, #1, .T. ) ;
#14 = DIRECTION ( 'NONE',  ( 1.000000000000000000, 0.000000000000000000, 0.000000000000000000 ) ) ;
#15 = CIRCLE ( 'NONE', #25, 2.499999999999999556 ) ;
#16 = PLANE ( 'NONE',  #134 ) ;
#17 =( LENGTH_UNIT ( ) NAMED_UNIT ( * ) SI_UNIT ( .MILLI., .METRE. ) );
#18 = DIRECTION ( 'NONE',  ( 0.000000000000000000, 0.000000000000000000, 1.000000000000000000 ) ) ;
#19 = PERSON_AND_ORGANIZATION ( #93, #74 ) ;
#20 = EDGE_LOOP ( 'NONE', ( #143, #103 ) ) ;
#21 = CALENDAR_DATE ( 2022, 3, 1 ) ;
#22 = VERTEX_POINT ( 'NONE', #37 ) ;
#23 = DIRECTION ( 'NONE',  ( 1.000000000000000000, 0.000000000000000000, 0.000000000000000000 ) ) ;
#24 = DIRECTION ( 'NONE',  ( 1.000000000000000000, 0.000000000000000000, 0.000000000000000000 ) ) ;
#25 = AXIS2_PLACEMENT_3D ( 'NONE', #137, #157, #110 ) ;
#26 = PERSON_AND_ORGANIZATION_ROLE ( 'design_owner' ) ;
#27 = LOCAL_TIME ( 16, 57, 26.00000000000000000, #70 ) ;
#28 = ORIENTED_EDGE ( 'NONE', *, *, #101, .F. ) ;
#29 = ORIENTED_EDGE ( 'NONE', *, *, #71, .F. ) ;
#30 = PRODUCT_DEFINITION_FORMATION_WITH_SPECIFIED_SOURCE ( 'ANY', '', #122, .NOT_KNOWN. ) ;
#31 = EDGE_CURVE ( 'NONE', #47, #107, #15, .T. ) ;
#32 = COORDINATED_UNIVERSAL_TIME_OFFSET ( 5, 0, .BEHIND. ) ;
#33 = ORIENTED_EDGE ( 'NONE', *, *, #13, .T. ) ;
#34 = AXIS2_PLACEMENT_3D ( 'NONE', #89, #148, #23 ) ;
#35 = APPROVAL ( #72, 'UNSPECIFIED' ) ;
#36 = ORIENTED_EDGE ( 'NONE', *, *, #13, .F. ) ;
#37 = CARTESIAN_POINT ( 'NONE',  ( 2.499999999999999556, 3.061616997868382648E-16, 0.000000000000000000 ) ) ;
#38 = CARTESIAN_POINT ( 'NONE',  ( 0.000000000000000000, 0.000000000000000000, 0.000000000000000000 ) ) ;
#39 = CC_DESIGN_APPROVAL ( #135, ( #49 ) ) ;
#40 =( NAMED_UNIT ( * ) PLANE_ANGLE_UNIT ( ) SI_UNIT ( $, .RADIAN. ) );
#41 = ADVANCED_BREP_SHAPE_REPRESENTATION ( 'Web Model 19822_19822', ( #123, #166 ), #145 ) ;
#42 = PERSON_AND_ORGANIZATION_ROLE ( 'creator' ) ;
#43 = DATE_TIME_ROLE ( 'classification_date' ) ;
#44 = DATE_AND_TIME ( #21, #156 ) ;
#45 = ORIENTED_EDGE ( 'NONE', *, *, #9, .T. ) ;
#46 = CC_DESIGN_APPROVAL ( #35, ( #30 ) ) ;
#47 = VERTEX_POINT ( 'NONE', #105 ) ;
#48 = AXIS2_PLACEMENT_3D ( 'NONE', #174, #111, #163 ) ;
#49 = SECURITY_CLASSIFICATION ( '', '', #162 ) ;
#50 = EDGE_LOOP ( 'NONE', ( #65, #99, #45, #36 ) ) ;
#51 = PRODUCT_DEFINITION_SHAPE ( 'NONE', 'NONE',  #116 ) ;
#52 = CALENDAR_DATE ( 2022, 3, 1 ) ;
#53 = PERSON_AND_ORGANIZATION ( #93, #74 ) ;
#54 = CARTESIAN_POINT ( 'NONE',  ( 0.000000000000000000, 0.000000000000000000, 0.000000000000000000 ) ) ;
#55 = CARTESIAN_POINT ( 'NONE',  ( 0.000000000000000000, 0.000000000000000000, 1.500000000000000000 ) ) ;
#56 = VERTEX_POINT ( 'NONE', #146 ) ;
#57 = AXIS2_PLACEMENT_3D ( 'NONE', #38, #18, #24 ) ;
#58 = CARTESIAN_POINT ( 'NONE',  ( 0.000000000000000000, 0.000000000000000000, 1.500000000000000000 ) ) ;
#59 = ADVANCED_FACE ( 'NONE', ( #138 ), #87, .T. ) ;
#60 = DIRECTION ( 'NONE',  ( -1.000000000000000000, 0.000000000000000000, 0.000000000000000000 ) ) ;
#61 = DIRECTION ( 'NONE',  ( -0.000000000000000000, -0.000000000000000000, -1.000000000000000000 ) ) ;
#62 = APPROVAL_ROLE ( '' ) ;
#63 = APPROVAL_DATE_TIME ( #81, #135 ) ;
#64 = PERSON_AND_ORGANIZATION ( #93, #74 ) ;
#65 = ORIENTED_EDGE ( 'NONE', *, *, #31, .F. ) ;
#66 = CC_DESIGN_DATE_AND_TIME_ASSIGNMENT ( #106, #98, ( #116 ) ) ;
#67 = CALENDAR_DATE ( 2022, 3, 1 ) ;
#68 = CC_DESIGN_PERSON_AND_ORGANIZATION_ASSIGNMENT ( #153, #3, ( #116 ) ) ;
#69 = APPROVAL_PERSON_ORGANIZATION ( #53, #35, #85 ) ;
#70 = COORDINATED_UNIVERSAL_TIME_OFFSET ( 5, 0, .BEHIND. ) ;
#71 = EDGE_CURVE ( 'NONE', #47, #22, #118, .T. ) ;
#72 = APPROVAL_STATUS ( 'not_yet_approved' ) ;
#73 = CARTESIAN_POINT ( 'NONE',  ( 0.000000000000000000, 0.000000000000000000, 0.000000000000000000 ) ) ;
#74 = ORGANIZATION ( 'UNSPECIFIED', 'UNSPECIFIED', '' ) ;
#75 = APPLICATION_CONTEXT ( 'configuration controlled 3d designs of mechanical parts and assemblies' ) ;
#76 = DATE_AND_TIME ( #5, #119 ) ;
#77 = FACE_OUTER_BOUND ( 'NONE', #155, .T. ) ;
#78 = APPROVAL_DATE_TIME ( #44, #8 ) ;
#79 = AXIS2_PLACEMENT_3D ( 'NONE', #55, #172, #170 ) ;
#80 = APPROVAL_PERSON_ORGANIZATION ( #64, #8, #175 ) ;
#81 = DATE_AND_TIME ( #52, #165 ) ;
#82 = CC_DESIGN_PERSON_AND_ORGANIZATION_ASSIGNMENT ( #19, #4, ( #49 ) ) ;
#83 = DIRECTION ( 'NONE',  ( 1.000000000000000000, 0.000000000000000000, 0.000000000000000000 ) ) ;
#84 = APPROVAL_STATUS ( 'not_yet_approved' ) ;
#85 = APPROVAL_ROLE ( '' ) ;
#86 = COORDINATED_UNIVERSAL_TIME_OFFSET ( 5, 0, .BEHIND. ) ;
#87 = CYLINDRICAL_SURFACE ( 'NONE', #48, 2.499999999999999556 ) ;
#88 = CC_DESIGN_SECURITY_CLASSIFICATION ( #49, ( #30 ) ) ;
#89 = CARTESIAN_POINT ( 'NONE',  ( 0.000000000000000000, 0.000000000000000000, 1.500000000000000000 ) ) ;
#90 = APPROVAL_DATE_TIME ( #76, #35 ) ;
#91 = CLOSED_SHELL ( 'NONE', ( #142, #59, #7, #132 ) ) ;
#92 = CIRCLE ( 'NONE', #131, 2.499999999999999556 ) ;
#93 = PERSON ( 'UNSPECIFIED', 'UNSPECIFIED', 'UNSPECIFIED', ('UNSPECIFIED'), ('UNSPECIFIED'), ('UNSPECIFIED') ) ;
#94 = DIRECTION ( 'NONE',  ( -0.000000000000000000, -0.000000000000000000, -1.000000000000000000 ) ) ;
#95 = SHAPE_DEFINITION_REPRESENTATION ( #51, #41 ) ;
#96 = CARTESIAN_POINT ( 'NONE',  ( 2.499999999999999556, 3.061616997868382648E-16, 1.500000000000000000 ) ) ;
#97 = CC_DESIGN_PERSON_AND_ORGANIZATION_ASSIGNMENT ( #150, #26, ( #122 ) ) ;
#98 = DATE_TIME_ROLE ( 'creation_date' ) ;
#99 = ORIENTED_EDGE ( 'NONE', *, *, #71, .T. ) ;
#100 = AXIS2_PLACEMENT_3D ( 'NONE', #58, #108, #60 ) ;
#101 = EDGE_CURVE ( 'NONE', #107, #47, #147, .T. ) ;
#102 = PERSON_AND_ORGANIZATION ( #93, #74 ) ;
#103 = ORIENTED_EDGE ( 'NONE', *, *, #31, .T. ) ;
#104 = DESIGN_CONTEXT ( 'detailed design', #75, 'design' ) ;
#105 = CARTESIAN_POINT ( 'NONE',  ( 2.499999999999999556, 3.061616997868382648E-16, 1.500000000000000000 ) ) ;
#106 = DATE_AND_TIME ( #158, #10 ) ;
#107 = VERTEX_POINT ( 'NONE', #139 ) ;
#108 = DIRECTION ( 'NONE',  ( -0.000000000000000000, -0.000000000000000000, -1.000000000000000000 ) ) ;
#109 = PRODUCT_RELATED_PRODUCT_CATEGORY ( 'detail', '', ( #122 ) ) ;
#110 = DIRECTION ( 'NONE',  ( 1.000000000000000000, 0.000000000000000000, 0.000000000000000000 ) ) ;
#111 = DIRECTION ( 'NONE',  ( -0.000000000000000000, -0.000000000000000000, -1.000000000000000000 ) ) ;
#112 = DIRECTION ( 'NONE',  ( 0.000000000000000000, 0.000000000000000000, 1.000000000000000000 ) ) ;
#113 = DIRECTION ( 'NONE',  ( 1.000000000000000000, 0.000000000000000000, -0.000000000000000000 ) ) ;
#114 = UNCERTAINTY_MEASURE_WITH_UNIT (LENGTH_MEASURE( 1.000000000000000082E-05 ), #17, 'distance_accuracy_value', 'NONE');
#115 = APPROVAL_PERSON_ORGANIZATION ( #124, #135, #62 ) ;
#116 = PRODUCT_DEFINITION ( 'UNKNOWN', '', #30, #104 ) ;
#117 = ORIENTED_EDGE ( 'NONE', *, *, #9, .F. ) ;
#118 = LINE ( 'NONE', #96, #11 ) ;
#119 = LOCAL_TIME ( 16, 57, 26.00000000000000000, #86 ) ;
#120 = CARTESIAN_POINT ( 'NONE',  ( -2.499999999999999556, 0.000000000000000000, 1.500000000000000000 ) ) ;
#121 = CC_DESIGN_PERSON_AND_ORGANIZATION_ASSIGNMENT ( #102, #42, ( #30 ) ) ;
#122 = PRODUCT ( 'Web Model 19822_19822', 'Web Model 19822_19822', '', ( #126 ) ) ;
#123 = MANIFOLD_SOLID_BREP ( 'Boss-Extrude1', #91 ) ;
#124 = PERSON_AND_ORGANIZATION ( #93, #74 ) ;
#125 = EDGE_LOOP ( 'NONE', ( #29, #28, #33, #169 ) ) ;
#126 = MECHANICAL_CONTEXT ( 'NONE', #127, 'mechanical' ) ;
#127 = APPLICATION_CONTEXT ( 'configuration controlled 3d designs of mechanical parts and assemblies' ) ;
#128 = COORDINATED_UNIVERSAL_TIME_OFFSET ( 5, 0, .BEHIND. ) ;
#129 = CC_DESIGN_APPROVAL ( #8, ( #116 ) ) ;
#130 = APPLICATION_PROTOCOL_DEFINITION ( 'international standard', 'config_control_design', 1994, #75 ) ;
#131 = AXIS2_PLACEMENT_3D ( 'NONE', #54, #12, #14 ) ;
#132 = ADVANCED_FACE ( 'NONE', ( #77 ), #16, .F. ) ;
#133 = PERSON_AND_ORGANIZATION ( #93, #74 ) ;
#134 = AXIS2_PLACEMENT_3D ( 'NONE', #73, #112, #113 ) ;
#135 = APPROVAL ( #151, 'UNSPECIFIED' ) ;
#136 = CC_DESIGN_PERSON_AND_ORGANIZATION_ASSIGNMENT ( #133, #149, ( #30 ) ) ;
#137 = CARTESIAN_POINT ( 'NONE',  ( 0.000000000000000000, 0.000000000000000000, 1.500000000000000000 ) ) ;
#138 = FACE_OUTER_BOUND ( 'NONE', #125, .T. ) ;
#139 = CARTESIAN_POINT ( 'NONE',  ( -2.499999999999999556, 0.000000000000000000, 1.500000000000000000 ) ) ;
#140 = VECTOR ( 'NONE', #94, 1000.000000000000000 ) ;
#141 =( NAMED_UNIT ( * ) SI_UNIT ( $, .STERADIAN. ) SOLID_ANGLE_UNIT ( ) );
#142 = ADVANCED_FACE ( 'NONE', ( #173 ), #164, .T. ) ;
#143 = ORIENTED_EDGE ( 'NONE', *, *, #101, .T. ) ;
#144 = CC_DESIGN_DATE_AND_TIME_ASSIGNMENT ( #154, #43, ( #49 ) ) ;
#145 =( GEOMETRIC_REPRESENTATION_CONTEXT ( 3 ) GLOBAL_UNCERTAINTY_ASSIGNED_CONTEXT ( ( #114 ) ) GLOBAL_UNIT_ASSIGNED_CONTEXT ( ( #17, #40, #141 ) ) REPRESENTATION_CONTEXT ( 'NONE', 'WORKASPACE' ) );
#146 = CARTESIAN_POINT ( 'NONE',  ( -2.499999999999999556, 0.000000000000000000, 0.000000000000000000 ) ) ;
#147 = CIRCLE ( 'NONE', #34, 2.499999999999999556 ) ;
#148 = DIRECTION ( 'NONE',  ( 0.000000000000000000, 0.000000000000000000, 1.000000000000000000 ) ) ;
#149 = PERSON_AND_ORGANIZATION_ROLE ( 'design_supplier' ) ;
#150 = PERSON_AND_ORGANIZATION ( #93, #74 ) ;
#151 = APPROVAL_STATUS ( 'not_yet_approved' ) ;
#152 = CIRCLE ( 'NONE', #57, 2.499999999999999556 ) ;
#153 = PERSON_AND_ORGANIZATION ( #93, #74 ) ;
#154 = DATE_AND_TIME ( #67, #27 ) ;
#155 = EDGE_LOOP ( 'NONE', ( #6, #117 ) ) ;
#156 = LOCAL_TIME ( 16, 57, 26.00000000000000000, #32 ) ;
#157 = DIRECTION ( 'NONE',  ( 0.000000000000000000, 0.000000000000000000, 1.000000000000000000 ) ) ;
#158 = CALENDAR_DATE ( 2022, 3, 1 ) ;
#159 = PLANE ( 'NONE',  #79 ) ;
#160 = CARTESIAN_POINT ( 'NONE',  ( 0.000000000000000000, 0.000000000000000000, 0.000000000000000000 ) ) ;
#161 = DIRECTION ( 'NONE',  ( 0.000000000000000000, 0.000000000000000000, 1.000000000000000000 ) ) ;
#162 = SECURITY_CLASSIFICATION_LEVEL ( 'unclassified' ) ;
#163 = DIRECTION ( 'NONE',  ( -1.000000000000000000, 0.000000000000000000, 0.000000000000000000 ) ) ;
#164 = CYLINDRICAL_SURFACE ( 'NONE', #100, 2.499999999999999556 ) ;
#165 = LOCAL_TIME ( 16, 57, 26.00000000000000000, #128 ) ;
#166 = AXIS2_PLACEMENT_3D ( 'NONE', #160, #161, #83 ) ;
#167 = EDGE_CURVE ( 'NONE', #56, #22, #152, .T. ) ;
#168 = FACE_OUTER_BOUND ( 'NONE', #20, .T. ) ;
#169 = ORIENTED_EDGE ( 'NONE', *, *, #167, .T. ) ;
#170 = DIRECTION ( 'NONE',  ( 1.000000000000000000, 0.000000000000000000, -0.000000000000000000 ) ) ;
#171 = COORDINATED_UNIVERSAL_TIME_OFFSET ( 5, 0, .BEHIND. ) ;
#172 = DIRECTION ( 'NONE',  ( 0.000000000000000000, 0.000000000000000000, 1.000000000000000000 ) ) ;
#173 = FACE_OUTER_BOUND ( 'NONE', #50, .T. ) ;
#174 = CARTESIAN_POINT ( 'NONE',  ( 0.000000000000000000, 0.000000000000000000, 1.500000000000000000 ) ) ;
#175 = APPROVAL_ROLE ( '' ) ;
ENDSEC;
END-ISO-10303-21;
