ISO-10303-21;
HEADER;
FILE_DESCRIPTION (( 'STEP AP203' ),
    '1' );
FILE_NAME ('TTN031791-E0W.STEP',
    '2014-09-16T17:32:31',
    ( 'admin' ),
    ( '' ),
    'SwSTEP 2.0',
    'SolidWorks 2014',
    '' );
FILE_SCHEMA (( 'CONFIG_CONTROL_DESIGN' ));
ENDSEC;

DATA;
#1 = ORIENTED_EDGE ( 'NONE', *, *, #52, .F. ) ;
#2 = PLANE ( 'NONE',  #96 ) ;
#3 = CC_DESIGN_DATE_AND_TIME_ASSIGNMENT ( #129, #181, ( #238 ) ) ;
#4 = ORIENTED_EDGE ( 'NONE', *, *, #40, .F. ) ;
#5 = DIRECTION ( 'NONE',  ( 1.000000000000000000, -0.0000000000000000000, -0.0000000000000000000 ) ) ;
#6 = CIRCLE ( 'NONE', #38, 0.4925846257015503200 ) ;
#7 = DIRECTION ( 'NONE',  ( 0.0000000000000000000, 0.0000000000000000000, -1.000000000000000000 ) ) ;
#8 = CC_DESIGN_PERSON_AND_ORGANIZATION_ASSIGNMENT ( #165, #163, ( #263 ) ) ;
#9 = PERSON ( 'UNSPECIFIED', 'UNSPECIFIED', 'UNSPECIFIED', ('UNSPECIFIED'), ('UNSPECIFIED'), ('UNSPECIFIED') ) ;
#10 = CARTESIAN_POINT ( 'NONE',  ( -0.001338382695361190000, -1.861077419176686700E-016, 0.0000000000000000000 ) ) ;
#11 = EDGE_LOOP ( 'NONE', ( #177, #239, #4, #44 ) ) ;
#12 = ORIENTED_EDGE ( 'NONE', *, *, #29, .T. ) ;
#13 = AXIS2_PLACEMENT_3D ( 'NONE', #299, #302, #230 ) ;
#14 = CALENDAR_DATE ( 2014, 16, 9 ) ;
#15 = ORIENTED_EDGE ( 'NONE', *, *, #210, .T. ) ;
#16 = LOCAL_TIME ( 13, 32, 31.00000000000000000, #34 ) ;
#17 = VERTEX_POINT ( 'NONE', #70 ) ;
#18 = DIRECTION ( 'NONE',  ( 1.000000000000000000, -0.0000000000000000000, -0.0000000000000000000 ) ) ;
#19 = APPROVAL ( #227, 'UNSPECIFIED' ) ;
#20 = CARTESIAN_POINT ( 'NONE',  ( -0.001338382695361190000, -2.556681958493972000E-017, 0.4925846257015503700 ) ) ;
#21 = CARTESIAN_POINT ( 'NONE',  ( -0.001338382695361190000, 3.521145965247413100E-017, -0.4925846257015503200 ) ) ;
#22 = CARTESIAN_POINT ( 'NONE',  ( -0.08070866141732283000, -2.556681958493972000E-017, 0.0000000000000000000 ) ) ;
#23 = CYLINDRICAL_SURFACE ( 'NONE', #91, 0.5000000000000000000 ) ;
#24 = AXIS2_PLACEMENT_3D ( 'NONE', #293, #262, #217 ) ;
#25 = EDGE_CURVE ( 'NONE', #137, #261, #221, .T. ) ;
#26 = CIRCLE ( 'NONE', #283, 0.5000000000000000000 ) ;
#27 = FACE_OUTER_BOUND ( 'NONE', #231, .T. ) ;
#28 = UNCERTAINTY_MEASURE_WITH_UNIT (LENGTH_MEASURE( 1.000000000000000100E-005 ), #164, 'distance_accuracy_value', 'NONE');
#29 = EDGE_CURVE ( 'NONE', #306, #128, #105, .T. ) ;
#30 = APPROVAL_STATUS ( 'not_yet_approved' ) ;
#31 = DIRECTION ( 'NONE',  ( 0.0000000000000000000, 0.0000000000000000000, -1.000000000000000000 ) ) ;
#32 = APPROVAL_ROLE ( '' ) ;
#33 = EDGE_LOOP ( 'NONE', ( #122, #56, #279, #74, #271 ) ) ;
#34 = COORDINATED_UNIVERSAL_TIME_OFFSET ( 5, 0, .BEHIND. ) ;
#35 = APPROVAL_ROLE ( '' ) ;
#36 = ORIENTED_EDGE ( 'NONE', *, *, #40, .T. ) ;
#37 = DIRECTION ( 'NONE',  ( 1.000000000000000000, -0.0000000000000000000, -0.0000000000000000000 ) ) ;
#38 = AXIS2_PLACEMENT_3D ( 'NONE', #157, #223, #86 ) ;
#39 = CYLINDRICAL_SURFACE ( 'NONE', #24, 0.5000000000000000000 ) ;
#40 = EDGE_CURVE ( 'NONE', #98, #17, #166, .T. ) ;
#41 = CC_DESIGN_APPROVAL ( #19, ( #238 ) ) ;
#42 = DIRECTION ( 'NONE',  ( 0.7071067811865413600, 8.659560562355006800E-017, 0.7071067811865534600 ) ) ;
#43 = MECHANICAL_CONTEXT ( 'NONE', #259, 'mechanical' ) ;
#44 = ORIENTED_EDGE ( 'NONE', *, *, #109, .F. ) ;
#45 = ADVANCED_FACE ( 'NONE', ( #84 ), #174, .T. ) ;
#46 = CIRCLE ( 'NONE', #241, 0.5000000000000000000 ) ;
#47 = LOCAL_TIME ( 13, 32, 31.00000000000000000, #318 ) ;
#48 = CARTESIAN_POINT ( 'NONE',  ( -0.01177457030843487500, -2.556681958493972000E-017, -0.5000000000000000000 ) ) ;
#49 = CARTESIAN_POINT ( 'NONE',  ( -0.08070866141732283000, -2.556681958493972000E-017, 0.0000000000000000000 ) ) ;
#50 = CARTESIAN_POINT ( 'NONE',  ( -0.07283464566929144500, -2.556681958493972000E-017, -0.5000000000000000000 ) ) ;
#51 = CONICAL_SURFACE ( 'NONE', #13, 0.4925846257015503700, 0.6177677193752333400 ) ;
#52 = EDGE_CURVE ( 'NONE', #137, #128, #188, .T. ) ;
#53 = CARTESIAN_POINT ( 'NONE',  ( -0.07283464566929144500, -2.556681958493972000E-017, -0.5000000000000000000 ) ) ;
#54 = DIRECTION ( 'NONE',  ( 0.0000000000000000000, 0.0000000000000000000, 1.000000000000000000 ) ) ;
#55 = EDGE_LOOP ( 'NONE', ( #15, #175 ) ) ;
#56 = ORIENTED_EDGE ( 'NONE', *, *, #150, .F. ) ;
#57 = FACE_OUTER_BOUND ( 'NONE', #255, .T. ) ;
#58 = ADVANCED_FACE ( 'NONE', ( #159 ), #104, .T. ) ;
#59 = DATE_AND_TIME ( #124, #95 ) ;
#60 = CC_DESIGN_SECURITY_CLASSIFICATION ( #238, ( #73 ) ) ;
#61 = DIRECTION ( 'NONE',  ( 0.0000000000000000000, 0.0000000000000000000, 1.000000000000000000 ) ) ;
#62 = ORIENTED_EDGE ( 'NONE', *, *, #260, .F. ) ;
#63 = CARTESIAN_POINT ( 'NONE',  ( -0.08070866141732283000, -2.556681958493972000E-017, -0.4921259842519684600 ) ) ;
#64 = PRODUCT_DEFINITION_SHAPE ( 'NONE', 'NONE',  #304 ) ;
#65 = CARTESIAN_POINT ( 'NONE',  ( 0.08070866141732283000, 3.566552037242794000E-017, 0.5000000000000000000 ) ) ;
#66 = EDGE_CURVE ( 'NONE', #17, #98, #26, .T. ) ;
#67 = APPROVAL_ROLE ( '' ) ;
#68 = CC_DESIGN_DATE_AND_TIME_ASSIGNMENT ( #59, #275, ( #304 ) ) ;
#69 = ORIENTED_EDGE ( 'NONE', *, *, #77, .F. ) ;
#70 = CARTESIAN_POINT ( 'NONE',  ( -0.07283464566929144500, 3.566552037242794000E-017, 0.5000000000000000000 ) ) ;
#71 = APPROVAL_PERSON_ORGANIZATION ( #197, #19, #35 ) ;
#72 =( NAMED_UNIT ( * ) PLANE_ANGLE_UNIT ( ) SI_UNIT ( $, .RADIAN. ) );
#73 = PRODUCT_DEFINITION_FORMATION_WITH_SPECIFIED_SOURCE ( 'ANY', '', #263, .NOT_KNOWN. ) ;
#74 = ORIENTED_EDGE ( 'NONE', *, *, #90, .T. ) ;
#75 = CONICAL_SURFACE ( 'NONE', #169, 0.4925846257015503700, 0.6177677193752333400 ) ;
#76 = DIMENSIONAL_EXPONENTS ( 1.000000000000000000, 0.0000000000000000000, 0.0000000000000000000, 0.0000000000000000000, 0.0000000000000000000, 0.0000000000000000000, 0.0000000000000000000 ) ;
#77 = EDGE_CURVE ( 'NONE', #312, #190, #46, .T. ) ;
#78 = CARTESIAN_POINT ( 'NONE',  ( -0.07283464566929144500, -2.556681958493972000E-017, 0.0000000000000000000 ) ) ;
#79 = AXIS2_PLACEMENT_3D ( 'NONE', #49, #228, #61 ) ;
#80 = ORIENTED_EDGE ( 'NONE', *, *, #25, .F. ) ;
#81 = PRODUCT_RELATED_PRODUCT_CATEGORY ( 'detail', '', ( #263 ) ) ;
#82 = CARTESIAN_POINT ( 'NONE',  ( 0.08070866141732269100, -9.305387095883434500E-017, 0.0000000000000000000 ) ) ;
#83 = DIRECTION ( 'NONE',  ( 0.0000000000000000000, 0.0000000000000000000, 1.000000000000000000 ) ) ;
#84 = FACE_OUTER_BOUND ( 'NONE', #180, .T. ) ;
#85 = ORIENTED_EDGE ( 'NONE', *, *, #130, .T. ) ;
#86 = DIRECTION ( 'NONE',  ( 0.0000000000000000000, 0.0000000000000000000, 1.000000000000000000 ) ) ;
#87 = APPROVAL_PERSON_ORGANIZATION ( #172, #118, #32 ) ;
#88 = ORIENTED_EDGE ( 'NONE', *, *, #90, .F. ) ;
#89 = APPROVAL_PERSON_ORGANIZATION ( #206, #313, #67 ) ;
#90 = EDGE_CURVE ( 'NONE', #261, #312, #316, .T. ) ;
#91 = AXIS2_PLACEMENT_3D ( 'NONE', #276, #136, #31 ) ;
#92 = AXIS2_PLACEMENT_3D ( 'NONE', #201, #254, #7 ) ;
#93 = CC_DESIGN_APPROVAL ( #313, ( #73 ) ) ;
#94 = CONICAL_SURFACE ( 'NONE', #314, 0.5000000000000000000, 0.7853981633974569400 ) ;
#95 = LOCAL_TIME ( 13, 32, 31.00000000000000000, #106 ) ;
#96 = AXIS2_PLACEMENT_3D ( 'NONE', #148, #121, #83 ) ;
#97 = DIRECTION ( 'NONE',  ( 0.0000000000000000000, 0.0000000000000000000, 1.000000000000000000 ) ) ;
#98 = VERTEX_POINT ( 'NONE', #50 ) ;
#99 = CARTESIAN_POINT ( 'NONE',  ( -0.07283464566929144500, -2.556681958493972000E-017, 0.0000000000000000000 ) ) ;
#100 = CARTESIAN_POINT ( 'NONE',  ( -1.438976377952756000, -1.861077419176686700E-016, 0.0000000000000000000 ) ) ;
#101 = DIRECTION ( 'NONE',  ( 0.0000000000000000000, 1.000000000000000000, 0.0000000000000000000 ) ) ;
#102 = ORIENTED_EDGE ( 'NONE', *, *, #210, .F. ) ;
#103 = DATE_AND_TIME ( #14, #211 ) ;
#104 = CONICAL_SURFACE ( 'NONE', #209, 0.5000000000000000000, 0.7853981633974569400 ) ;
#105 = CIRCLE ( 'NONE', #198, 1.519685039370078700 ) ;
#106 = COORDINATED_UNIVERSAL_TIME_OFFSET ( 5, 0, .BEHIND. ) ;
#107 = ADVANCED_FACE ( 'NONE', ( #57 ), #269, .T. ) ;
#108 = ORIENTED_EDGE ( 'NONE', *, *, #29, .F. ) ;
#109 = EDGE_CURVE ( 'NONE', #272, #98, #212, .T. ) ;
#110 = EDGE_LOOP ( 'NONE', ( #195, #102, #131, #224 ) ) ;
#111 = SHAPE_DEFINITION_REPRESENTATION ( #64, #178 ) ;
#112 = FACE_OUTER_BOUND ( 'NONE', #110, .T. ) ;
#113 = EDGE_LOOP ( 'NONE', ( #62, #85, #69, #88, #80 ) ) ;
#114 = CARTESIAN_POINT ( 'NONE',  ( -1.438976377952756000, -1.861077419176686700E-016, 0.0000000000000000000 ) ) ;
#115 = ORIENTED_EDGE ( 'NONE', *, *, #260, .T. ) ;
#116 = DIRECTION ( 'NONE',  ( 0.0000000000000000000, -0.0000000000000000000, 1.000000000000000000 ) ) ;
#117 = DIRECTION ( 'NONE',  ( 1.000000000000000000, -0.0000000000000000000, -0.0000000000000000000 ) ) ;
#118 = APPROVAL ( #30, 'UNSPECIFIED' ) ;
#119 = CARTESIAN_POINT ( 'NONE',  ( -0.08070866141732283000, 3.518337596331480300E-017, 0.4921259842519684600 ) ) ;
#120 = ORIENTED_EDGE ( 'NONE', *, *, #150, .T. ) ;
#121 = DIRECTION ( 'NONE',  ( -1.000000000000000000, 0.0000000000000000000, 0.0000000000000000000 ) ) ;
#122 = ORIENTED_EDGE ( 'NONE', *, *, #130, .F. ) ;
#123 = EDGE_CURVE ( 'NONE', #296, #272, #216, .T. ) ;
#124 = CALENDAR_DATE ( 2014, 16, 9 ) ;
#125 = DIRECTION ( 'NONE',  ( 0.0000000000000000000, 0.0000000000000000000, 1.000000000000000000 ) ) ;
#126 = DIRECTION ( 'NONE',  ( 0.0000000000000000000, 0.0000000000000000000, -1.000000000000000000 ) ) ;
#127 = DIRECTION ( 'NONE',  ( 0.0000000000000000000, 0.0000000000000000000, 1.000000000000000000 ) ) ;
#128 = VERTEX_POINT ( 'NONE', #82 ) ;
#129 = DATE_AND_TIME ( #139, #219 ) ;
#130 = EDGE_CURVE ( 'NONE', #182, #190, #152, .T. ) ;
#131 = ORIENTED_EDGE ( 'NONE', *, *, #109, .T. ) ;
#132 = AXIS2_PLACEMENT_3D ( 'NONE', #100, #289, #101 ) ;
#133 = SECURITY_CLASSIFICATION_LEVEL ( 'unclassified' ) ;
#134 = DIRECTION ( 'NONE',  ( 0.0000000000000000000, 1.224646799147353200E-016, 1.000000000000000000 ) ) ;
#135 = PERSON_AND_ORGANIZATION_ROLE ( 'classification_officer' ) ;
#136 = DIRECTION ( 'NONE',  ( 1.000000000000000000, -0.0000000000000000000, -0.0000000000000000000 ) ) ;
#137 = VERTEX_POINT ( 'NONE', #247 ) ;
#138 = ORIENTED_EDGE ( 'NONE', *, *, #156, .T. ) ;
#139 = CALENDAR_DATE ( 2014, 16, 9 ) ;
#140 = CARTESIAN_POINT ( 'NONE',  ( -1.438976377952756000, -1.861077419176686700E-016, 0.0000000000000000000 ) ) ;
#141 = AXIS2_PLACEMENT_3D ( 'NONE', #10, #117, #258 ) ;
#142 = DESIGN_CONTEXT ( 'detailed design', #274, 'design' ) ;
#143 = DIRECTION ( 'NONE',  ( 0.0000000000000000000, -1.000000000000000000, 1.224646799147353200E-016 ) ) ;
#144 = APPLICATION_PROTOCOL_DEFINITION ( 'international standard', 'config_control_design', 1994, #259 ) ;
#145 = DIRECTION ( 'NONE',  ( 1.000000000000000000, -0.0000000000000000000, -0.0000000000000000000 ) ) ;
#146 = ORGANIZATION ( 'UNSPECIFIED', 'UNSPECIFIED', '' ) ;
#147 = EDGE_CURVE ( 'NONE', #261, #306, #321, .T. ) ;
#148 = CARTESIAN_POINT ( 'NONE',  ( -0.08070866141732283000, -2.556681958493972000E-017, 0.0000000000000000000 ) ) ;
#149 = DIRECTION ( 'NONE',  ( 1.000000000000000000, -0.0000000000000000000, -0.0000000000000000000 ) ) ;
#150 = EDGE_CURVE ( 'NONE', #306, #182, #173, .T. ) ;
#151 = APPROVAL_DATE_TIME ( #103, #118 ) ;
#152 = LINE ( 'NONE', #267, #311 ) ;
#153 = ORIENTED_EDGE ( 'NONE', *, *, #284, .F. ) ;
#154 = ADVANCED_FACE ( 'NONE', ( #112 ), #94, .T. ) ;
#155 = CARTESIAN_POINT ( 'NONE',  ( 0.08070866141732283000, -2.556681958493972000E-017, -0.5000000000000000000 ) ) ;
#156 = EDGE_CURVE ( 'NONE', #98, #190, #226, .T. ) ;
#157 = CARTESIAN_POINT ( 'NONE',  ( -0.001338382695361190000, -1.861077419176686700E-016, 0.0000000000000000000 ) ) ;
#158 = PERSON_AND_ORGANIZATION_ROLE ( 'creator' ) ;
#159 = FACE_OUTER_BOUND ( 'NONE', #11, .T. ) ;
#160 = CC_DESIGN_PERSON_AND_ORGANIZATION_ASSIGNMENT ( #249, #135, ( #238 ) ) ;
#161 = CARTESIAN_POINT ( 'NONE',  ( -0.001338382695361053400, -0.4925846257015504800, 6.032421851746006700E-017 ) ) ;
#162 = FACE_OUTER_BOUND ( 'NONE', #55, .T. ) ;
#163 = PERSON_AND_ORGANIZATION_ROLE ( 'design_owner' ) ;
#164 =( CONVERSION_BASED_UNIT ( 'INCH', #225 ) LENGTH_UNIT ( ) NAMED_UNIT ( #76 ) );
#165 = PERSON_AND_ORGANIZATION ( #9, #146 ) ;
#166 = CIRCLE ( 'NONE', #215, 0.5000000000000000000 ) ;
#167 = ORIENTED_EDGE ( 'NONE', *, *, #156, .F. ) ;
#168 = AXIS2_PLACEMENT_3D ( 'NONE', #253, #232, #187 ) ;
#169 = AXIS2_PLACEMENT_3D ( 'NONE', #248, #317, #97 ) ;
#170 = DIRECTION ( 'NONE',  ( -0.8151734613079263400, 0.0000000000000000000, 0.5792169092656522800 ) ) ;
#171 = DIRECTION ( 'NONE',  ( -0.8151734613079263400, 7.093361339442039600E-017, -0.5792169092656522800 ) ) ;
#172 = PERSON_AND_ORGANIZATION ( #9, #146 ) ;
#173 = CIRCLE ( 'NONE', #244, 0.4925846257015503200 ) ;
#174 = SPHERICAL_SURFACE ( 'NONE', #307, 1.519685039370078700 ) ;
#175 = ORIENTED_EDGE ( 'NONE', *, *, #123, .T. ) ;
#176 = ADVANCED_FACE ( 'NONE', ( #162 ), #2, .T. ) ;
#177 = ORIENTED_EDGE ( 'NONE', *, *, #123, .F. ) ;
#178 = ADVANCED_BREP_SHAPE_REPRESENTATION ( 'TTN031791-E0W', ( #189, #168 ), #310 ) ;
#179 = PERSON_AND_ORGANIZATION_ROLE ( 'creator' ) ;
#180 = EDGE_LOOP ( 'NONE', ( #108, #120, #115, #236 ) ) ;
#181 = DATE_TIME_ROLE ( 'classification_date' ) ;
#182 = VERTEX_POINT ( 'NONE', #21 ) ;
#183 = CARTESIAN_POINT ( 'NONE',  ( -1.438976377952756000, -1.861077419176686700E-016, 0.0000000000000000000 ) ) ;
#184 = CALENDAR_DATE ( 2014, 16, 9 ) ;
#185 =( NAMED_UNIT ( * ) SI_UNIT ( $, .STERADIAN. ) SOLID_ANGLE_UNIT ( ) );
#186 = CARTESIAN_POINT ( 'NONE',  ( -0.07283464566929144500, 3.566552037242794000E-017, 0.5000000000000000000 ) ) ;
#187 = DIRECTION ( 'NONE',  ( 1.000000000000000000, 0.0000000000000000000, 0.0000000000000000000 ) ) ;
#188 = CIRCLE ( 'NONE', #290, 1.519685039370078700 ) ;
#189 = MANIFOLD_SOLID_BREP ( 'TTN031792-1-solid1', #194 ) ;
#190 = VERTEX_POINT ( 'NONE', #48 ) ;
#191 = DATE_AND_TIME ( #184, #16 ) ;
#192 = DIRECTION ( 'NONE',  ( -1.000000000000000000, 0.0000000000000000000, 0.0000000000000000000 ) ) ;
#193 = DIRECTION ( 'NONE',  ( 0.0000000000000000000, 0.0000000000000000000, -1.000000000000000000 ) ) ;
#194 = CLOSED_SHELL ( 'NONE', ( #58, #246, #220, #107, #45, #196, #176, #214, #154 ) ) ;
#195 = ORIENTED_EDGE ( 'NONE', *, *, #323, .F. ) ;
#196 = ADVANCED_FACE ( 'NONE', ( #27 ), #39, .T. ) ;
#197 = PERSON_AND_ORGANIZATION ( #9, #146 ) ;
#198 = AXIS2_PLACEMENT_3D ( 'NONE', #183, #134, #143 ) ;
#199 = DATE_AND_TIME ( #265, #47 ) ;
#200 = FACE_OUTER_BOUND ( 'NONE', #268, .T. ) ;
#201 = CARTESIAN_POINT ( 'NONE',  ( -0.01177457030843487500, -2.556681958493972000E-017, 0.0000000000000000000 ) ) ;
#202 = VECTOR ( 'NONE', #42, 39.37007874015748900 ) ;
#203 = LINE ( 'NONE', #65, #237 ) ;
#204 = CARTESIAN_POINT ( 'NONE',  ( -0.07283464566929144500, -2.556681958493972000E-017, 0.0000000000000000000 ) ) ;
#205 = ORIENTED_EDGE ( 'NONE', *, *, #25, .T. ) ;
#206 = PERSON_AND_ORGANIZATION ( #9, #146 ) ;
#207 = CARTESIAN_POINT ( 'NONE',  ( -0.07283464566929144500, -2.556681958493972000E-017, 0.0000000000000000000 ) ) ;
#208 = CARTESIAN_POINT ( 'NONE',  ( -0.01177457030843487500, 3.566552037242794000E-017, 0.5000000000000000000 ) ) ;
#209 = AXIS2_PLACEMENT_3D ( 'NONE', #207, #37, #281 ) ;
#210 = EDGE_CURVE ( 'NONE', #272, #296, #273, .T. ) ;
#211 = LOCAL_TIME ( 13, 32, 31.00000000000000000, #285 ) ;
#212 = LINE ( 'NONE', #53, #278 ) ;
#213 = PERSON_AND_ORGANIZATION ( #9, #146 ) ;
#214 = ADVANCED_FACE ( 'NONE', ( #294 ), #75, .T. ) ;
#215 = AXIS2_PLACEMENT_3D ( 'NONE', #204, #305, #309 ) ;
#216 = CIRCLE ( 'NONE', #234, 0.4921259842519684600 ) ;
#217 = DIRECTION ( 'NONE',  ( 0.0000000000000000000, 0.0000000000000000000, -1.000000000000000000 ) ) ;
#218 = DIRECTION ( 'NONE',  ( -1.000000000000000000, 0.0000000000000000000, 0.0000000000000000000 ) ) ;
#219 = LOCAL_TIME ( 13, 32, 31.00000000000000000, #229 ) ;
#220 = ADVANCED_FACE ( 'NONE', ( #200 ), #23, .T. ) ;
#221 = CIRCLE ( 'NONE', #141, 0.4925846257015503200 ) ;
#222 = VECTOR ( 'NONE', #5, 39.37007874015748100 ) ;
#223 = DIRECTION ( 'NONE',  ( 1.000000000000000000, -0.0000000000000000000, -0.0000000000000000000 ) ) ;
#224 = ORIENTED_EDGE ( 'NONE', *, *, #66, .F. ) ;
#225 = LENGTH_MEASURE_WITH_UNIT ( LENGTH_MEASURE( 0.02539999999999999900 ), #235 );
#226 = LINE ( 'NONE', #155, #222 ) ;
#227 = APPROVAL_STATUS ( 'not_yet_approved' ) ;
#228 = DIRECTION ( 'NONE',  ( -1.000000000000000000, 0.0000000000000000000, 0.0000000000000000000 ) ) ;
#229 = COORDINATED_UNIVERSAL_TIME_OFFSET ( 5, 0, .BEHIND. ) ;
#230 = DIRECTION ( 'NONE',  ( 0.0000000000000000000, 0.0000000000000000000, 1.000000000000000000 ) ) ;
#231 = EDGE_LOOP ( 'NONE', ( #153, #287, #138, #300 ) ) ;
#232 = DIRECTION ( 'NONE',  ( 0.0000000000000000000, 0.0000000000000000000, 1.000000000000000000 ) ) ;
#233 = CC_DESIGN_PERSON_AND_ORGANIZATION_ASSIGNMENT ( #286, #179, ( #73 ) ) ;
#234 = AXIS2_PLACEMENT_3D ( 'NONE', #22, #218, #125 ) ;
#235 =( LENGTH_UNIT ( ) NAMED_UNIT ( * ) SI_UNIT ( $, .METRE. ) );
#236 = ORIENTED_EDGE ( 'NONE', *, *, #52, .T. ) ;
#237 = VECTOR ( 'NONE', #145, 39.37007874015748100 ) ;
#238 = SECURITY_CLASSIFICATION ( '', '', #133 ) ;
#239 = ORIENTED_EDGE ( 'NONE', *, *, #323, .T. ) ;
#240 = CARTESIAN_POINT ( 'NONE',  ( -0.001338382695361190000, -1.861077419176686700E-016, 0.0000000000000000000 ) ) ;
#241 = AXIS2_PLACEMENT_3D ( 'NONE', #243, #192, #126 ) ;
#242 = DIRECTION ( 'NONE',  ( 0.0000000000000000000, 0.0000000000000000000, 1.000000000000000000 ) ) ;
#243 = CARTESIAN_POINT ( 'NONE',  ( -0.01177457030843487500, -2.556681958493972000E-017, 0.0000000000000000000 ) ) ;
#244 = AXIS2_PLACEMENT_3D ( 'NONE', #240, #264, #54 ) ;
#245 = EDGE_CURVE ( 'NONE', #190, #312, #266, .T. ) ;
#246 = ADVANCED_FACE ( 'NONE', ( #297 ), #51, .T. ) ;
#247 = CARTESIAN_POINT ( 'NONE',  ( -0.001338382695361053400, 0.4925846257015500900, 0.0000000000000000000 ) ) ;
#248 = CARTESIAN_POINT ( 'NONE',  ( -0.001338382695361190000, -2.556681958493972000E-017, 0.0000000000000000000 ) ) ;
#249 = PERSON_AND_ORGANIZATION ( #9, #146 ) ;
#250 = AXIS2_PLACEMENT_3D ( 'NONE', #298, #324, #127 ) ;
#251 = APPROVAL_DATE_TIME ( #199, #19 ) ;
#252 = APPROVAL_STATUS ( 'not_yet_approved' ) ;
#253 = CARTESIAN_POINT ( 'NONE',  ( 0.0000000000000000000, 0.0000000000000000000, 0.0000000000000000000 ) ) ;
#254 = DIRECTION ( 'NONE',  ( -1.000000000000000000, 0.0000000000000000000, 0.0000000000000000000 ) ) ;
#255 = EDGE_LOOP ( 'NONE', ( #205, #315, #12, #1 ) ) ;
#256 = APPLICATION_PROTOCOL_DEFINITION ( 'international standard', 'config_control_design', 1994, #274 ) ;
#257 = CC_DESIGN_PERSON_AND_ORGANIZATION_ASSIGNMENT ( #295, #301, ( #73 ) ) ;
#258 = DIRECTION ( 'NONE',  ( 0.0000000000000000000, -8.881784197001250400E-016, 1.000000000000000000 ) ) ;
#259 = APPLICATION_CONTEXT ( 'configuration controlled 3d designs of mechanical parts and assemblies' ) ;
#260 = EDGE_CURVE ( 'NONE', #182, #137, #6, .T. ) ;
#261 = VERTEX_POINT ( 'NONE', #303 ) ;
#262 = DIRECTION ( 'NONE',  ( 1.000000000000000000, -0.0000000000000000000, -0.0000000000000000000 ) ) ;
#263 = PRODUCT ( 'TTN031791-E0W', 'TTN031791-E0W', '', ( #43 ) ) ;
#264 = DIRECTION ( 'NONE',  ( 1.000000000000000000, -0.0000000000000000000, -0.0000000000000000000 ) ) ;
#265 = CALENDAR_DATE ( 2014, 16, 9 ) ;
#266 = CIRCLE ( 'NONE', #92, 0.5000000000000000000 ) ;
#267 = CARTESIAN_POINT ( 'NONE',  ( -0.001338382695361190000, 3.475739893252034700E-017, -0.4925846257015503700 ) ) ;
#268 = EDGE_LOOP ( 'NONE', ( #36, #292, #320, #167 ) ) ;
#269 = SPHERICAL_SURFACE ( 'NONE', #132, 1.519685039370078700 ) ;
#270 = CC_DESIGN_APPROVAL ( #118, ( #304 ) ) ;
#271 = ORIENTED_EDGE ( 'NONE', *, *, #245, .F. ) ;
#272 = VERTEX_POINT ( 'NONE', #63 ) ;
#273 = CIRCLE ( 'NONE', #79, 0.4921259842519684600 ) ;
#274 = APPLICATION_CONTEXT ( 'configuration controlled 3d designs of mechanical parts and assemblies' ) ;
#275 = DATE_TIME_ROLE ( 'creation_date' ) ;
#276 = CARTESIAN_POINT ( 'NONE',  ( 0.08070866141732283000, -2.556681958493972000E-017, 0.0000000000000000000 ) ) ;
#277 = LINE ( 'NONE', #186, #202 ) ;
#278 = VECTOR ( 'NONE', #291, 39.37007874015748900 ) ;
#279 = ORIENTED_EDGE ( 'NONE', *, *, #147, .F. ) ;
#280 = APPROVAL_DATE_TIME ( #191, #313 ) ;
#281 = DIRECTION ( 'NONE',  ( 0.0000000000000000000, 0.0000000000000000000, -1.000000000000000000 ) ) ;
#282 = DIRECTION ( 'NONE',  ( 0.0000000000000000000, 1.000000000000000000, 0.0000000000000000000 ) ) ;
#283 = AXIS2_PLACEMENT_3D ( 'NONE', #78, #149, #242 ) ;
#284 = EDGE_CURVE ( 'NONE', #17, #312, #203, .T. ) ;
#285 = COORDINATED_UNIVERSAL_TIME_OFFSET ( 5, 0, .BEHIND. ) ;
#286 = PERSON_AND_ORGANIZATION ( #9, #146 ) ;
#287 = ORIENTED_EDGE ( 'NONE', *, *, #66, .T. ) ;
#288 = DIRECTION ( 'NONE',  ( -1.000000000000000000, 0.0000000000000000000, 0.0000000000000000000 ) ) ;
#289 = DIRECTION ( 'NONE',  ( 0.0000000000000000000, -0.0000000000000000000, 1.000000000000000000 ) ) ;
#290 = AXIS2_PLACEMENT_3D ( 'NONE', #140, #193, #288 ) ;
#291 = DIRECTION ( 'NONE',  ( 0.7071067811865413600, 0.0000000000000000000, -0.7071067811865534600 ) ) ;
#292 = ORIENTED_EDGE ( 'NONE', *, *, #284, .T. ) ;
#293 = CARTESIAN_POINT ( 'NONE',  ( 0.08070866141732283000, -2.556681958493972000E-017, 0.0000000000000000000 ) ) ;
#294 = FACE_OUTER_BOUND ( 'NONE', #33, .T. ) ;
#295 = PERSON_AND_ORGANIZATION ( #9, #146 ) ;
#296 = VERTEX_POINT ( 'NONE', #119 ) ;
#297 = FACE_OUTER_BOUND ( 'NONE', #113, .T. ) ;
#298 = CARTESIAN_POINT ( 'NONE',  ( -0.001338382695361190000, -1.861077419176686700E-016, 0.0000000000000000000 ) ) ;
#299 = CARTESIAN_POINT ( 'NONE',  ( -0.001338382695361190000, -2.556681958493972000E-017, 0.0000000000000000000 ) ) ;
#300 = ORIENTED_EDGE ( 'NONE', *, *, #245, .T. ) ;
#301 = PERSON_AND_ORGANIZATION_ROLE ( 'design_supplier' ) ;
#302 = DIRECTION ( 'NONE',  ( -1.000000000000000000, 0.0000000000000000000, 0.0000000000000000000 ) ) ;
#303 = CARTESIAN_POINT ( 'NONE',  ( -0.001338382695361190000, -2.556681958493976700E-017, 0.4925846257015503200 ) ) ;
#304 = PRODUCT_DEFINITION ( 'UNKNOWN', '', #73, #142 ) ;
#305 = DIRECTION ( 'NONE',  ( 1.000000000000000000, -0.0000000000000000000, -0.0000000000000000000 ) ) ;
#306 = VERTEX_POINT ( 'NONE', #161 ) ;
#307 = AXIS2_PLACEMENT_3D ( 'NONE', #114, #116, #282 ) ;
#308 = VECTOR ( 'NONE', #170, 39.37007874015748100 ) ;
#309 = DIRECTION ( 'NONE',  ( 0.0000000000000000000, 0.0000000000000000000, 1.000000000000000000 ) ) ;
#310 =( GEOMETRIC_REPRESENTATION_CONTEXT ( 3 ) GLOBAL_UNCERTAINTY_ASSIGNED_CONTEXT ( ( #28 ) ) GLOBAL_UNIT_ASSIGNED_CONTEXT ( ( #164, #72, #185 ) ) REPRESENTATION_CONTEXT ( 'NONE', 'WORKASPACE' ) );
#311 = VECTOR ( 'NONE', #171, 39.37007874015748100 ) ;
#312 = VERTEX_POINT ( 'NONE', #208 ) ;
#313 = APPROVAL ( #252, 'UNSPECIFIED' ) ;
#314 = AXIS2_PLACEMENT_3D ( 'NONE', #99, #18, #322 ) ;
#315 = ORIENTED_EDGE ( 'NONE', *, *, #147, .T. ) ;
#316 = LINE ( 'NONE', #20, #308 ) ;
#317 = DIRECTION ( 'NONE',  ( -1.000000000000000000, 0.0000000000000000000, 0.0000000000000000000 ) ) ;
#318 = COORDINATED_UNIVERSAL_TIME_OFFSET ( 5, 0, .BEHIND. ) ;
#319 = CC_DESIGN_PERSON_AND_ORGANIZATION_ASSIGNMENT ( #213, #158, ( #304 ) ) ;
#320 = ORIENTED_EDGE ( 'NONE', *, *, #77, .T. ) ;
#321 = CIRCLE ( 'NONE', #250, 0.4925846257015503200 ) ;
#322 = DIRECTION ( 'NONE',  ( 0.0000000000000000000, 0.0000000000000000000, -1.000000000000000000 ) ) ;
#323 = EDGE_CURVE ( 'NONE', #296, #17, #277, .T. ) ;
#324 = DIRECTION ( 'NONE',  ( 1.000000000000000000, -0.0000000000000000000, -0.0000000000000000000 ) ) ;
ENDSEC;
END-ISO-10303-21;
