ISO-10303-21;
HEADER;
FILE_DESCRIPTION (( 'STEP AP203' ),
    '1' );
FILE_NAME ('Web Model 45574_13286.step',
    '2020-11-03T21:39:25',
    ( '' ),
    ( '' ),
    'SwSTEP 2.0',
    'SolidWorks 2018',
    '' );
FILE_SCHEMA (( 'CONFIG_CONTROL_DESIGN' ));
ENDSEC;

DATA;
#1 = DIRECTION ( 'NONE',  ( 0.0000000000000000000, 0.0000000000000000000, 1.000000000000000000 ) ) ;
#2 = DIRECTION ( 'NONE',  ( 1.000000000000000000, 0.0000000000000000000, 0.0000000000000000000 ) ) ;
#3 = ADVANCED_BREP_SHAPE_REPRESENTATION ( 'Web Model 45574_13286', ( #126, #128 ), #134 ) ;
#4 = ORIENTED_EDGE ( 'NONE', *, *, #140, .T. ) ;
#5 = DIRECTION ( 'NONE',  ( 0.0000000000000000000, 0.0000000000000000000, 1.000000000000000000 ) ) ;
#6 = DIRECTION ( 'NONE',  ( 0.0000000000000000000, 0.0000000000000000000, 1.000000000000000000 ) ) ;
#7 = PRODUCT_DEFINITION_FORMATION_WITH_SPECIFIED_SOURCE ( 'ANY', '', #117, .NOT_KNOWN. ) ;
#8 = ORIENTED_EDGE ( 'NONE', *, *, #131, .T. ) ;
#9 = APPROVAL_ROLE ( '' ) ;
#10 = COORDINATED_UNIVERSAL_TIME_OFFSET ( 5, 0, .BEHIND. ) ;
#11 = PERSON_AND_ORGANIZATION ( #78, #67 ) ;
#12 = ORIENTED_EDGE ( 'NONE', *, *, #52, .T. ) ;
#13 = PRODUCT_DEFINITION_SHAPE ( 'NONE', 'NONE',  #72 ) ;
#14 = CC_DESIGN_APPROVAL ( #97, ( #50 ) ) ;
#15 = COORDINATED_UNIVERSAL_TIME_OFFSET ( 5, 0, .BEHIND. ) ;
#16 = FACE_OUTER_BOUND ( 'NONE', #93, .T. ) ;
#17 = ADVANCED_FACE ( 'NONE', ( #16 ), #170, .T. ) ;
#18 = LOCAL_TIME ( 16, 39, 25.00000000000000000, #105 ) ;
#19 = LINE ( 'NONE', #37, #159 ) ;
#20 = DIRECTION ( 'NONE',  ( 0.0000000000000000000, 0.0000000000000000000, 1.000000000000000000 ) ) ;
#21 = DIRECTION ( 'NONE',  ( 0.0000000000000000000, 0.0000000000000000000, 1.000000000000000000 ) ) ;
#22 = ORIENTED_EDGE ( 'NONE', *, *, #47, .F. ) ;
#23 = DIRECTION ( 'NONE',  ( 1.000000000000000000, 0.0000000000000000000, 0.0000000000000000000 ) ) ;
#24 =( NAMED_UNIT ( * ) PLANE_ANGLE_UNIT ( ) SI_UNIT ( $, .RADIAN. ) );
#25 = DIRECTION ( 'NONE',  ( 0.0000000000000000000, 0.0000000000000000000, 1.000000000000000000 ) ) ;
#26 = SHAPE_DEFINITION_REPRESENTATION ( #13, #3 ) ;
#27 = APPROVAL_STATUS ( 'not_yet_approved' ) ;
#28 = DATE_TIME_ROLE ( 'classification_date' ) ;
#29 = CC_DESIGN_SECURITY_CLASSIFICATION ( #50, ( #7 ) ) ;
#30 = APPLICATION_CONTEXT ( 'configuration controlled 3d designs of mechanical parts and assemblies' ) ;
#31 = VERTEX_POINT ( 'NONE', #141 ) ;
#32 = CIRCLE ( 'NONE', #171, 2.499999999999998668 ) ;
#33 = CC_DESIGN_APPROVAL ( #147, ( #7 ) ) ;
#34 = DIRECTION ( 'NONE',  ( 1.000000000000000000, 0.0000000000000000000, 0.0000000000000000000 ) ) ;
#35 = EDGE_LOOP ( 'NONE', ( #8, #136 ) ) ;
#36 = DIRECTION ( 'NONE',  ( 0.0000000000000000000, 0.0000000000000000000, 1.000000000000000000 ) ) ;
#37 = CARTESIAN_POINT ( 'NONE',  ( -2.499999999999998668, 3.061616997868381662E-16, -2.000000000000000000 ) ) ;
#38 = CALENDAR_DATE ( 2020, 3, 11 ) ;
#39 = CARTESIAN_POINT ( 'NONE',  ( 2.499999999999998668, 0.0000000000000000000, -2.000000000000000000 ) ) ;
#40 = PRODUCT_RELATED_PRODUCT_CATEGORY ( 'detail', '', ( #117 ) ) ;
#41 = PLANE ( 'NONE',  #143 ) ;
#42 = CIRCLE ( 'NONE', #66, 2.499999999999998668 ) ;
#43 = LOCAL_TIME ( 16, 39, 25.00000000000000000, #146 ) ;
#44 = ADVANCED_FACE ( 'NONE', ( #46 ), #73, .T. ) ;
#45 = CC_DESIGN_PERSON_AND_ORGANIZATION_ASSIGNMENT ( #69, #101, ( #7 ) ) ;
#46 = FACE_OUTER_BOUND ( 'NONE', #35, .T. ) ;
#47 = EDGE_CURVE ( 'NONE', #61, #111, #94, .T. ) ;
#48 = PERSON_AND_ORGANIZATION ( #78, #67 ) ;
#49 = ORIENTED_EDGE ( 'NONE', *, *, #131, .F. ) ;
#50 = SECURITY_CLASSIFICATION ( '', '', #71 ) ;
#51 = DATE_AND_TIME ( #110, #142 ) ;
#52 = EDGE_CURVE ( 'NONE', #31, #61, #19, .T. ) ;
#53 = DIRECTION ( 'NONE',  ( 1.000000000000000000, 0.0000000000000000000, -0.0000000000000000000 ) ) ;
#54 = DIRECTION ( 'NONE',  ( 0.0000000000000000000, 0.0000000000000000000, 1.000000000000000000 ) ) ;
#55 = MECHANICAL_CONTEXT ( 'NONE', #91, 'mechanical' ) ;
#56 = UNCERTAINTY_MEASURE_WITH_UNIT (LENGTH_MEASURE( 1.000000000000000082E-05 ), #90, 'distance_accuracy_value', 'NONE');
#57 = APPROVAL_PERSON_ORGANIZATION ( #88, #97, #9 ) ;
#58 = CC_DESIGN_PERSON_AND_ORGANIZATION_ASSIGNMENT ( #127, #120, ( #50 ) ) ;
#59 = CARTESIAN_POINT ( 'NONE',  ( 0.0000000000000000000, 0.0000000000000000000, -2.000000000000000000 ) ) ;
#60 = APPROVAL_PERSON_ORGANIZATION ( #165, #79, #167 ) ;
#61 = VERTEX_POINT ( 'NONE', #129 ) ;
#62 = AXIS2_PLACEMENT_3D ( 'NONE', #114, #123, #156 ) ;
#63 = CARTESIAN_POINT ( 'NONE',  ( 0.0000000000000000000, 0.0000000000000000000, 0.0000000000000000000 ) ) ;
#64 = CALENDAR_DATE ( 2020, 3, 11 ) ;
#65 = CARTESIAN_POINT ( 'NONE',  ( 0.0000000000000000000, 0.0000000000000000000, -2.000000000000000000 ) ) ;
#66 = AXIS2_PLACEMENT_3D ( 'NONE', #81, #54, #162 ) ;
#67 = ORGANIZATION ( 'UNSPECIFIED', 'UNSPECIFIED', '' ) ;
#68 = ORIENTED_EDGE ( 'NONE', *, *, #157, .F. ) ;
#69 = PERSON_AND_ORGANIZATION ( #78, #67 ) ;
#70 = CC_DESIGN_DATE_AND_TIME_ASSIGNMENT ( #116, #28, ( #50 ) ) ;
#71 = SECURITY_CLASSIFICATION_LEVEL ( 'unclassified' ) ;
#72 = PRODUCT_DEFINITION ( 'UNKNOWN', '', #7, #158 ) ;
#73 = PLANE ( 'NONE',  #62 ) ;
#74 = PERSON_AND_ORGANIZATION ( #78, #67 ) ;
#75 = LOCAL_TIME ( 16, 39, 25.00000000000000000, #133 ) ;
#76 = APPROVAL_DATE_TIME ( #150, #147 ) ;
#77 = DIRECTION ( 'NONE',  ( 0.0000000000000000000, 0.0000000000000000000, 1.000000000000000000 ) ) ;
#78 = PERSON ( 'UNSPECIFIED', 'UNSPECIFIED', 'UNSPECIFIED', ('UNSPECIFIED'), ('UNSPECIFIED'), ('UNSPECIFIED') ) ;
#79 = APPROVAL ( #121, 'UNSPECIFIED' ) ;
#80 = ORIENTED_EDGE ( 'NONE', *, *, #175, .F. ) ;
#81 = CARTESIAN_POINT ( 'NONE',  ( 0.0000000000000000000, 0.0000000000000000000, 0.0000000000000000000 ) ) ;
#82 = CYLINDRICAL_SURFACE ( 'NONE', #153, 2.499999999999998668 ) ;
#83 = APPLICATION_PROTOCOL_DEFINITION ( 'international standard', 'config_control_design', 1994, #91 ) ;
#84 = APPROVAL_STATUS ( 'not_yet_approved' ) ;
#85 = ORIENTED_EDGE ( 'NONE', *, *, #175, .T. ) ;
#86 = VERTEX_POINT ( 'NONE', #39 ) ;
#87 = ADVANCED_FACE ( 'NONE', ( #135 ), #41, .F. ) ;
#88 = PERSON_AND_ORGANIZATION ( #78, #67 ) ;
#89 = EDGE_LOOP ( 'NONE', ( #148, #125, #4, #22 ) ) ;
#90 =( LENGTH_UNIT ( ) NAMED_UNIT ( * ) SI_UNIT ( .MILLI., .METRE. ) );
#91 = APPLICATION_CONTEXT ( 'configuration controlled 3d designs of mechanical parts and assemblies' ) ;
#92 = PERSON_AND_ORGANIZATION_ROLE ( 'design_owner' ) ;
#93 = EDGE_LOOP ( 'NONE', ( #85, #12, #49, #152 ) ) ;
#94 = CIRCLE ( 'NONE', #104, 2.499999999999998668 ) ;
#95 = PERSON_AND_ORGANIZATION ( #78, #67 ) ;
#96 = DIRECTION ( 'NONE',  ( 0.0000000000000000000, 0.0000000000000000000, 1.000000000000000000 ) ) ;
#97 = APPROVAL ( #27, 'UNSPECIFIED' ) ;
#98 = LOCAL_TIME ( 16, 39, 25.00000000000000000, #15 ) ;
#99 = CALENDAR_DATE ( 2020, 3, 11 ) ;
#100 = CARTESIAN_POINT ( 'NONE',  ( 0.0000000000000000000, 0.0000000000000000000, -2.000000000000000000 ) ) ;
#101 = PERSON_AND_ORGANIZATION_ROLE ( 'design_supplier' ) ;
#102 = PERSON_AND_ORGANIZATION_ROLE ( 'creator' ) ;
#103 = APPROVAL_DATE_TIME ( #51, #97 ) ;
#104 = AXIS2_PLACEMENT_3D ( 'NONE', #63, #96, #155 ) ;
#105 = COORDINATED_UNIVERSAL_TIME_OFFSET ( 5, 0, .BEHIND. ) ;
#106 = VECTOR ( 'NONE', #6, 1000.000000000000000 ) ;
#107 = CC_DESIGN_PERSON_AND_ORGANIZATION_ASSIGNMENT ( #11, #92, ( #117 ) ) ;
#108 = DATE_AND_TIME ( #38, #18 ) ;
#109 =( NAMED_UNIT ( * ) SI_UNIT ( $, .STERADIAN. ) SOLID_ANGLE_UNIT ( ) );
#110 = CALENDAR_DATE ( 2020, 3, 11 ) ;
#111 = VERTEX_POINT ( 'NONE', #174 ) ;
#112 = APPLICATION_PROTOCOL_DEFINITION ( 'international standard', 'config_control_design', 1994, #30 ) ;
#113 = CIRCLE ( 'NONE', #169, 2.499999999999998668 ) ;
#114 = CARTESIAN_POINT ( 'NONE',  ( 0.0000000000000000000, 0.0000000000000000000, 0.0000000000000000000 ) ) ;
#115 = CC_DESIGN_PERSON_AND_ORGANIZATION_ASSIGNMENT ( #95, #102, ( #72 ) ) ;
#116 = DATE_AND_TIME ( #139, #98 ) ;
#117 = PRODUCT ( 'Web Model 45574_13286', 'Web Model 45574_13286', '', ( #55 ) ) ;
#118 = CARTESIAN_POINT ( 'NONE',  ( 0.0000000000000000000, 0.0000000000000000000, 0.0000000000000000000 ) ) ;
#119 = EDGE_LOOP ( 'NONE', ( #80, #68 ) ) ;
#120 = PERSON_AND_ORGANIZATION_ROLE ( 'classification_officer' ) ;
#121 = APPROVAL_STATUS ( 'not_yet_approved' ) ;
#122 = APPROVAL_DATE_TIME ( #151, #79 ) ;
#123 = DIRECTION ( 'NONE',  ( 0.0000000000000000000, 0.0000000000000000000, 1.000000000000000000 ) ) ;
#124 = AXIS2_PLACEMENT_3D ( 'NONE', #59, #36, #34 ) ;
#125 = ORIENTED_EDGE ( 'NONE', *, *, #157, .T. ) ;
#126 = MANIFOLD_SOLID_BREP ( 'Extrude1', #166 ) ;
#127 = PERSON_AND_ORGANIZATION ( #78, #67 ) ;
#128 = AXIS2_PLACEMENT_3D ( 'NONE', #118, #1, #164 ) ;
#129 = CARTESIAN_POINT ( 'NONE',  ( -2.499999999999998668, 3.061616997868381662E-16, 0.0000000000000000000 ) ) ;
#130 = ADVANCED_FACE ( 'NONE', ( #154 ), #82, .T. ) ;
#131 = EDGE_CURVE ( 'NONE', #111, #61, #42, .T. ) ;
#132 = CARTESIAN_POINT ( 'NONE',  ( 0.0000000000000000000, 0.0000000000000000000, -2.000000000000000000 ) ) ;
#133 = COORDINATED_UNIVERSAL_TIME_OFFSET ( 5, 0, .BEHIND. ) ;
#134 =( GEOMETRIC_REPRESENTATION_CONTEXT ( 3 ) GLOBAL_UNCERTAINTY_ASSIGNED_CONTEXT ( ( #56 ) ) GLOBAL_UNIT_ASSIGNED_CONTEXT ( ( #90, #24, #109 ) ) REPRESENTATION_CONTEXT ( 'NONE', 'WORKASPACE' ) );
#135 = FACE_OUTER_BOUND ( 'NONE', #119, .T. ) ;
#136 = ORIENTED_EDGE ( 'NONE', *, *, #47, .T. ) ;
#137 = DATE_TIME_ROLE ( 'creation_date' ) ;
#138 = CC_DESIGN_PERSON_AND_ORGANIZATION_ASSIGNMENT ( #74, #168, ( #7 ) ) ;
#139 = CALENDAR_DATE ( 2020, 3, 11 ) ;
#140 = EDGE_CURVE ( 'NONE', #86, #111, #173, .T. ) ;
#141 = CARTESIAN_POINT ( 'NONE',  ( -2.499999999999998668, 3.061616997868381662E-16, -2.000000000000000000 ) ) ;
#142 = LOCAL_TIME ( 16, 39, 25.00000000000000000, #10 ) ;
#143 = AXIS2_PLACEMENT_3D ( 'NONE', #65, #21, #53 ) ;
#144 = CARTESIAN_POINT ( 'NONE',  ( 2.499999999999998668, 0.0000000000000000000, -2.000000000000000000 ) ) ;
#145 = CARTESIAN_POINT ( 'NONE',  ( 0.0000000000000000000, 0.0000000000000000000, -2.000000000000000000 ) ) ;
#146 = COORDINATED_UNIVERSAL_TIME_OFFSET ( 5, 0, .BEHIND. ) ;
#147 = APPROVAL ( #84, 'UNSPECIFIED' ) ;
#148 = ORIENTED_EDGE ( 'NONE', *, *, #52, .F. ) ;
#149 = APPROVAL_ROLE ( '' ) ;
#150 = DATE_AND_TIME ( #64, #43 ) ;
#151 = DATE_AND_TIME ( #99, #75 ) ;
#152 = ORIENTED_EDGE ( 'NONE', *, *, #140, .F. ) ;
#153 = AXIS2_PLACEMENT_3D ( 'NONE', #100, #25, #23 ) ;
#154 = FACE_OUTER_BOUND ( 'NONE', #89, .T. ) ;
#155 = DIRECTION ( 'NONE',  ( 1.000000000000000000, 0.0000000000000000000, 0.0000000000000000000 ) ) ;
#156 = DIRECTION ( 'NONE',  ( 1.000000000000000000, 0.0000000000000000000, -0.0000000000000000000 ) ) ;
#157 = EDGE_CURVE ( 'NONE', #31, #86, #32, .T. ) ;
#158 = DESIGN_CONTEXT ( 'detailed design', #30, 'design' ) ;
#159 = VECTOR ( 'NONE', #20, 1000.000000000000000 ) ;
#160 = CC_DESIGN_APPROVAL ( #79, ( #72 ) ) ;
#161 = DIRECTION ( 'NONE',  ( 1.000000000000000000, 0.0000000000000000000, 0.0000000000000000000 ) ) ;
#162 = DIRECTION ( 'NONE',  ( 1.000000000000000000, 0.0000000000000000000, 0.0000000000000000000 ) ) ;
#163 = CC_DESIGN_DATE_AND_TIME_ASSIGNMENT ( #108, #137, ( #72 ) ) ;
#164 = DIRECTION ( 'NONE',  ( 1.000000000000000000, 0.0000000000000000000, 0.0000000000000000000 ) ) ;
#165 = PERSON_AND_ORGANIZATION ( #78, #67 ) ;
#166 = CLOSED_SHELL ( 'NONE', ( #17, #130, #87, #44 ) ) ;
#167 = APPROVAL_ROLE ( '' ) ;
#168 = PERSON_AND_ORGANIZATION_ROLE ( 'creator' ) ;
#169 = AXIS2_PLACEMENT_3D ( 'NONE', #132, #5, #2 ) ;
#170 = CYLINDRICAL_SURFACE ( 'NONE', #124, 2.499999999999998668 ) ;
#171 = AXIS2_PLACEMENT_3D ( 'NONE', #145, #77, #161 ) ;
#172 = APPROVAL_PERSON_ORGANIZATION ( #48, #147, #149 ) ;
#173 = LINE ( 'NONE', #144, #106 ) ;
#174 = CARTESIAN_POINT ( 'NONE',  ( 2.499999999999998668, 0.0000000000000000000, 0.0000000000000000000 ) ) ;
#175 = EDGE_CURVE ( 'NONE', #86, #31, #113, .T. ) ;
ENDSEC;
END-ISO-10303-21;
