ISO-10303-21;
HEADER;
FILE_DESCRIPTION (( 'STEP AP203' ),
    '1' );
FILE_NAME ('Web Model 68157_20850.step',
    '2022-03-15T19:19:51',
    ( '' ),
    ( '' ),
    'SwSTEP 2.0',
    'SolidWorks 2021',
    '' );
FILE_SCHEMA (( 'CONFIG_CONTROL_DESIGN' ));
ENDSEC;

DATA;
#1 = APPLICATION_PROTOCOL_DEFINITION ( 'international standard', 'config_control_design', 1994, #74 ) ;
#2 = LOCAL_TIME ( 15, 19, 51.00000000000000000, #99 ) ;
#3 = DATE_TIME_ROLE ( 'classification_date' ) ;
#4 = EDGE_LOOP ( 'NONE', ( #77, #164 ) ) ;
#5 = APPROVAL_STATUS ( 'not_yet_approved' ) ;
#6 = PERSON_AND_ORGANIZATION_ROLE ( 'creator' ) ;
#7 = CYLINDRICAL_SURFACE ( 'NONE', #56, 6.349999999999999645 ) ;
#8 = DIRECTION ( 'NONE',  ( -0.000000000000000000, -0.000000000000000000, -1.000000000000000000 ) ) ;
#9 = PRODUCT_DEFINITION ( 'UNKNOWN', '', #171, #125 ) ;
#10 = CC_DESIGN_PERSON_AND_ORGANIZATION_ASSIGNMENT ( #16, #175, ( #9 ) ) ;
#11 = EDGE_LOOP ( 'NONE', ( #60, #141 ) ) ;
#12 = APPROVAL_ROLE ( '' ) ;
#13 = ORIENTED_EDGE ( 'NONE', *, *, #104, .T. ) ;
#14 = APPROVAL_ROLE ( '' ) ;
#15 = ORIENTED_EDGE ( 'NONE', *, *, #106, .F. ) ;
#16 = PERSON_AND_ORGANIZATION ( #134, #59 ) ;
#17 = CARTESIAN_POINT ( 'NONE',  ( -6.349999999999999645, 0.000000000000000000, 0.5000000000000000000 ) ) ;
#18 = CIRCLE ( 'NONE', #140, 6.349999999999999645 ) ;
#19 = VERTEX_POINT ( 'NONE', #17 ) ;
#20 = MECHANICAL_CONTEXT ( 'NONE', #67, 'mechanical' ) ;
#21 = FACE_OUTER_BOUND ( 'NONE', #136, .T. ) ;
#22 = CARTESIAN_POINT ( 'NONE',  ( 6.349999999999999645, 7.776507174585692163E-16, 0.5000000000000000000 ) ) ;
#23 = ADVANCED_FACE ( 'NONE', ( #124 ), #160, .T. ) ;
#24 = PERSON_AND_ORGANIZATION ( #134, #59 ) ;
#25 = AXIS2_PLACEMENT_3D ( 'NONE', #87, #153, #44 ) ;
#26 = SECURITY_CLASSIFICATION ( '', '', #110 ) ;
#27 = ORIENTED_EDGE ( 'NONE', *, *, #31, .T. ) ;
#28 =( NAMED_UNIT ( * ) SI_UNIT ( $, .STERADIAN. ) SOLID_ANGLE_UNIT ( ) );
#29 = DIRECTION ( 'NONE',  ( 0.000000000000000000, 0.000000000000000000, 1.000000000000000000 ) ) ;
#30 = DATE_AND_TIME ( #97, #61 ) ;
#31 = EDGE_CURVE ( 'NONE', #63, #38, #105, .T. ) ;
#32 = FACE_OUTER_BOUND ( 'NONE', #11, .T. ) ;
#33 = DIRECTION ( 'NONE',  ( 0.000000000000000000, 0.000000000000000000, 1.000000000000000000 ) ) ;
#34 = APPROVAL ( #165, 'UNSPECIFIED' ) ;
#35 = DIRECTION ( 'NONE',  ( 1.000000000000000000, 0.000000000000000000, 0.000000000000000000 ) ) ;
#36 = DIRECTION ( 'NONE',  ( 1.000000000000000000, 0.000000000000000000, 0.000000000000000000 ) ) ;
#37 = DATE_AND_TIME ( #161, #156 ) ;
#38 = VERTEX_POINT ( 'NONE', #149 ) ;
#39 = COORDINATED_UNIVERSAL_TIME_OFFSET ( 5, 0, .BEHIND. ) ;
#40 = APPROVAL ( #51, 'UNSPECIFIED' ) ;
#41 = CARTESIAN_POINT ( 'NONE',  ( 0.000000000000000000, 0.000000000000000000, 0.000000000000000000 ) ) ;
#42 = CLOSED_SHELL ( 'NONE', ( #69, #143, #23, #173 ) ) ;
#43 = DIRECTION ( 'NONE',  ( -0.000000000000000000, -0.000000000000000000, -1.000000000000000000 ) ) ;
#44 = DIRECTION ( 'NONE',  ( -1.000000000000000000, 0.000000000000000000, 0.000000000000000000 ) ) ;
#45 =( GEOMETRIC_REPRESENTATION_CONTEXT ( 3 ) GLOBAL_UNCERTAINTY_ASSIGNED_CONTEXT ( ( #80 ) ) GLOBAL_UNIT_ASSIGNED_CONTEXT ( ( #100, #86, #28 ) ) REPRESENTATION_CONTEXT ( 'NONE', 'WORKASPACE' ) );
#46 = EDGE_CURVE ( 'NONE', #38, #63, #146, .T. ) ;
#47 = CARTESIAN_POINT ( 'NONE',  ( 0.000000000000000000, 0.000000000000000000, 0.000000000000000000 ) ) ;
#48 = CC_DESIGN_PERSON_AND_ORGANIZATION_ASSIGNMENT ( #64, #126, ( #26 ) ) ;
#49 = CALENDAR_DATE ( 2022, 15, 3 ) ;
#50 = ORIENTED_EDGE ( 'NONE', *, *, #128, .F. ) ;
#51 = APPROVAL_STATUS ( 'not_yet_approved' ) ;
#52 = APPROVAL_ROLE ( '' ) ;
#53 = CARTESIAN_POINT ( 'NONE',  ( 0.000000000000000000, 0.000000000000000000, 0.5000000000000000000 ) ) ;
#54 = CALENDAR_DATE ( 2022, 15, 3 ) ;
#55 = LINE ( 'NONE', #167, #120 ) ;
#56 = AXIS2_PLACEMENT_3D ( 'NONE', #131, #8, #169 ) ;
#57 = DIRECTION ( 'NONE',  ( 0.000000000000000000, 0.000000000000000000, 1.000000000000000000 ) ) ;
#58 = APPROVAL_PERSON_ORGANIZATION ( #129, #75, #14 ) ;
#59 = ORGANIZATION ( 'UNSPECIFIED', 'UNSPECIFIED', '' ) ;
#60 = ORIENTED_EDGE ( 'NONE', *, *, #31, .F. ) ;
#61 = LOCAL_TIME ( 15, 19, 51.00000000000000000, #39 ) ;
#62 = PERSON_AND_ORGANIZATION_ROLE ( 'design_owner' ) ;
#63 = VERTEX_POINT ( 'NONE', #93 ) ;
#64 = PERSON_AND_ORGANIZATION ( #134, #59 ) ;
#65 = LOCAL_TIME ( 15, 19, 51.00000000000000000, #116 ) ;
#66 = DIRECTION ( 'NONE',  ( 1.000000000000000000, 0.000000000000000000, 0.000000000000000000 ) ) ;
#67 = APPLICATION_CONTEXT ( 'configuration controlled 3d designs of mechanical parts and assemblies' ) ;
#68 = DATE_TIME_ROLE ( 'creation_date' ) ;
#69 = ADVANCED_FACE ( 'NONE', ( #130 ), #7, .T. ) ;
#70 = DIRECTION ( 'NONE',  ( 0.000000000000000000, 0.000000000000000000, 1.000000000000000000 ) ) ;
#71 = CYLINDRICAL_SURFACE ( 'NONE', #25, 6.349999999999999645 ) ;
#72 = CC_DESIGN_DATE_AND_TIME_ASSIGNMENT ( #37, #3, ( #26 ) ) ;
#73 = CC_DESIGN_APPROVAL ( #75, ( #171 ) ) ;
#74 = APPLICATION_CONTEXT ( 'configuration controlled 3d designs of mechanical parts and assemblies' ) ;
#75 = APPROVAL ( #5, 'UNSPECIFIED' ) ;
#76 = PERSON_AND_ORGANIZATION ( #134, #59 ) ;
#77 = ORIENTED_EDGE ( 'NONE', *, *, #128, .T. ) ;
#78 = AXIS2_PLACEMENT_3D ( 'NONE', #96, #29, #66 ) ;
#79 = APPROVAL_PERSON_ORGANIZATION ( #24, #34, #52 ) ;
#80 = UNCERTAINTY_MEASURE_WITH_UNIT (LENGTH_MEASURE( 1.000000000000000082E-05 ), #100, 'distance_accuracy_value', 'NONE');
#81 = DATE_AND_TIME ( #49, #158 ) ;
#82 = CC_DESIGN_PERSON_AND_ORGANIZATION_ASSIGNMENT ( #152, #62, ( #121 ) ) ;
#83 = DATE_AND_TIME ( #166, #2 ) ;
#84 = SHAPE_DEFINITION_REPRESENTATION ( #91, #123 ) ;
#85 = DATE_AND_TIME ( #54, #65 ) ;
#86 =( NAMED_UNIT ( * ) PLANE_ANGLE_UNIT ( ) SI_UNIT ( $, .RADIAN. ) );
#87 = CARTESIAN_POINT ( 'NONE',  ( 0.000000000000000000, 0.000000000000000000, 0.5000000000000000000 ) ) ;
#88 = DIRECTION ( 'NONE',  ( 1.000000000000000000, 0.000000000000000000, -0.000000000000000000 ) ) ;
#89 = MANIFOLD_SOLID_BREP ( 'Boss-Extrude1', #42 ) ;
#90 = CC_DESIGN_PERSON_AND_ORGANIZATION_ASSIGNMENT ( #94, #6, ( #171 ) ) ;
#91 = PRODUCT_DEFINITION_SHAPE ( 'NONE', 'NONE',  #9 ) ;
#92 = PERSON_AND_ORGANIZATION_ROLE ( 'design_supplier' ) ;
#93 = CARTESIAN_POINT ( 'NONE',  ( -6.349999999999999645, 0.000000000000000000, 0.000000000000000000 ) ) ;
#94 = PERSON_AND_ORGANIZATION ( #134, #59 ) ;
#95 = AXIS2_PLACEMENT_3D ( 'NONE', #150, #163, #35 ) ;
#96 = CARTESIAN_POINT ( 'NONE',  ( 0.000000000000000000, 0.000000000000000000, 0.000000000000000000 ) ) ;
#97 = CALENDAR_DATE ( 2022, 15, 3 ) ;
#98 = DIRECTION ( 'NONE',  ( 0.000000000000000000, 0.000000000000000000, 1.000000000000000000 ) ) ;
#99 = COORDINATED_UNIVERSAL_TIME_OFFSET ( 5, 0, .BEHIND. ) ;
#100 =( LENGTH_UNIT ( ) NAMED_UNIT ( * ) SI_UNIT ( .MILLI., .METRE. ) );
#101 = VECTOR ( 'NONE', #170, 1000.000000000000000 ) ;
#102 = DIRECTION ( 'NONE',  ( 1.000000000000000000, 0.000000000000000000, 0.000000000000000000 ) ) ;
#103 = LINE ( 'NONE', #119, #101 ) ;
#104 = EDGE_CURVE ( 'NONE', #109, #38, #55, .T. ) ;
#105 = CIRCLE ( 'NONE', #78, 6.349999999999999645 ) ;
#106 = EDGE_CURVE ( 'NONE', #19, #63, #103, .T. ) ;
#107 = CIRCLE ( 'NONE', #122, 6.349999999999999645 ) ;
#108 = ORIENTED_EDGE ( 'NONE', *, *, #46, .T. ) ;
#109 = VERTEX_POINT ( 'NONE', #22 ) ;
#110 = SECURITY_CLASSIFICATION_LEVEL ( 'unclassified' ) ;
#111 = COORDINATED_UNIVERSAL_TIME_OFFSET ( 5, 0, .BEHIND. ) ;
#112 = ORIENTED_EDGE ( 'NONE', *, *, #104, .F. ) ;
#113 = CC_DESIGN_SECURITY_CLASSIFICATION ( #26, ( #171 ) ) ;
#114 = APPROVAL_DATE_TIME ( #83, #40 ) ;
#115 = DIRECTION ( 'NONE',  ( 1.000000000000000000, 0.000000000000000000, -0.000000000000000000 ) ) ;
#116 = COORDINATED_UNIVERSAL_TIME_OFFSET ( 5, 0, .BEHIND. ) ;
#117 = DIRECTION ( 'NONE',  ( 1.000000000000000000, 0.000000000000000000, 0.000000000000000000 ) ) ;
#118 = CARTESIAN_POINT ( 'NONE',  ( 0.000000000000000000, 0.000000000000000000, 0.5000000000000000000 ) ) ;
#119 = CARTESIAN_POINT ( 'NONE',  ( -6.349999999999999645, 0.000000000000000000, 0.5000000000000000000 ) ) ;
#120 = VECTOR ( 'NONE', #43, 1000.000000000000000 ) ;
#121 = PRODUCT ( 'Web Model 68157_20850', 'Web Model 68157_20850', '', ( #20 ) ) ;
#122 = AXIS2_PLACEMENT_3D ( 'NONE', #118, #70, #117 ) ;
#123 = ADVANCED_BREP_SHAPE_REPRESENTATION ( 'Web Model 68157_20850', ( #89, #95 ), #45 ) ;
#124 = FACE_OUTER_BOUND ( 'NONE', #4, .T. ) ;
#125 = DESIGN_CONTEXT ( 'detailed design', #74, 'design' ) ;
#126 = PERSON_AND_ORGANIZATION_ROLE ( 'classification_officer' ) ;
#127 = CC_DESIGN_APPROVAL ( #40, ( #9 ) ) ;
#128 = EDGE_CURVE ( 'NONE', #19, #109, #18, .T. ) ;
#129 = PERSON_AND_ORGANIZATION ( #134, #59 ) ;
#130 = FACE_OUTER_BOUND ( 'NONE', #138, .T. ) ;
#131 = CARTESIAN_POINT ( 'NONE',  ( 0.000000000000000000, 0.000000000000000000, 0.5000000000000000000 ) ) ;
#132 = CC_DESIGN_DATE_AND_TIME_ASSIGNMENT ( #85, #68, ( #9 ) ) ;
#133 = AXIS2_PLACEMENT_3D ( 'NONE', #47, #151, #36 ) ;
#134 = PERSON ( 'UNSPECIFIED', 'UNSPECIFIED', 'UNSPECIFIED', ('UNSPECIFIED'), ('UNSPECIFIED'), ('UNSPECIFIED') ) ;
#135 = AXIS2_PLACEMENT_3D ( 'NONE', #53, #98, #115 ) ;
#136 = EDGE_LOOP ( 'NONE', ( #112, #50, #174, #27 ) ) ;
#137 = APPROVAL_DATE_TIME ( #81, #75 ) ;
#138 = EDGE_LOOP ( 'NONE', ( #148, #13, #108, #15 ) ) ;
#139 = APPLICATION_PROTOCOL_DEFINITION ( 'international standard', 'config_control_design', 1994, #67 ) ;
#140 = AXIS2_PLACEMENT_3D ( 'NONE', #154, #57, #102 ) ;
#141 = ORIENTED_EDGE ( 'NONE', *, *, #46, .F. ) ;
#142 = PLANE ( 'NONE',  #157 ) ;
#143 = ADVANCED_FACE ( 'NONE', ( #21 ), #71, .T. ) ;
#144 = CC_DESIGN_PERSON_AND_ORGANIZATION_ASSIGNMENT ( #159, #92, ( #171 ) ) ;
#145 = COORDINATED_UNIVERSAL_TIME_OFFSET ( 5, 0, .BEHIND. ) ;
#146 = CIRCLE ( 'NONE', #133, 6.349999999999999645 ) ;
#147 = APPROVAL_DATE_TIME ( #30, #34 ) ;
#148 = ORIENTED_EDGE ( 'NONE', *, *, #168, .F. ) ;
#149 = CARTESIAN_POINT ( 'NONE',  ( 6.349999999999999645, 7.776507174585692163E-16, 0.000000000000000000 ) ) ;
#150 = CARTESIAN_POINT ( 'NONE',  ( 0.000000000000000000, 0.000000000000000000, 0.000000000000000000 ) ) ;
#151 = DIRECTION ( 'NONE',  ( 0.000000000000000000, 0.000000000000000000, 1.000000000000000000 ) ) ;
#152 = PERSON_AND_ORGANIZATION ( #134, #59 ) ;
#153 = DIRECTION ( 'NONE',  ( -0.000000000000000000, -0.000000000000000000, -1.000000000000000000 ) ) ;
#154 = CARTESIAN_POINT ( 'NONE',  ( 0.000000000000000000, 0.000000000000000000, 0.5000000000000000000 ) ) ;
#155 = PRODUCT_RELATED_PRODUCT_CATEGORY ( 'detail', '', ( #121 ) ) ;
#156 = LOCAL_TIME ( 15, 19, 51.00000000000000000, #145 ) ;
#157 = AXIS2_PLACEMENT_3D ( 'NONE', #41, #33, #88 ) ;
#158 = LOCAL_TIME ( 15, 19, 51.00000000000000000, #111 ) ;
#159 = PERSON_AND_ORGANIZATION ( #134, #59 ) ;
#160 = PLANE ( 'NONE',  #135 ) ;
#161 = CALENDAR_DATE ( 2022, 15, 3 ) ;
#162 = APPROVAL_PERSON_ORGANIZATION ( #76, #40, #12 ) ;
#163 = DIRECTION ( 'NONE',  ( 0.000000000000000000, 0.000000000000000000, 1.000000000000000000 ) ) ;
#164 = ORIENTED_EDGE ( 'NONE', *, *, #168, .T. ) ;
#165 = APPROVAL_STATUS ( 'not_yet_approved' ) ;
#166 = CALENDAR_DATE ( 2022, 15, 3 ) ;
#167 = CARTESIAN_POINT ( 'NONE',  ( 6.349999999999999645, 7.776507174585692163E-16, 0.5000000000000000000 ) ) ;
#168 = EDGE_CURVE ( 'NONE', #109, #19, #107, .T. ) ;
#169 = DIRECTION ( 'NONE',  ( -1.000000000000000000, 0.000000000000000000, 0.000000000000000000 ) ) ;
#170 = DIRECTION ( 'NONE',  ( -0.000000000000000000, -0.000000000000000000, -1.000000000000000000 ) ) ;
#171 = PRODUCT_DEFINITION_FORMATION_WITH_SPECIFIED_SOURCE ( 'ANY', '', #121, .NOT_KNOWN. ) ;
#172 = CC_DESIGN_APPROVAL ( #34, ( #26 ) ) ;
#173 = ADVANCED_FACE ( 'NONE', ( #32 ), #142, .F. ) ;
#174 = ORIENTED_EDGE ( 'NONE', *, *, #106, .T. ) ;
#175 = PERSON_AND_ORGANIZATION_ROLE ( 'creator' ) ;
ENDSEC;
END-ISO-10303-21;
