ISO-10303-21;
HEADER;
FILE_DESCRIPTION (( 'STEP AP214' ),
    '1' );
FILE_NAME ('CTN002731.STEP',
    '2016-07-26T01:37:32',
    ( '' ),
    ( '' ),
    'SwSTEP 2.0',
    'SolidWorks 2016',
    '' );
FILE_SCHEMA (( 'AUTOMOTIVE_DESIGN' ));
ENDSEC;

DATA;
#1 = UNCERTAINTY_MEASURE_WITH_UNIT (LENGTH_MEASURE( 1.000000000000000100E-005 ), #89, 'distance_accuracy_value', 'NONE');
#2 = AXIS2_PLACEMENT_3D ( 'NONE', #80, #29, #124 ) ;
#3 = CARTESIAN_POINT ( 'NONE',  ( 0.0000000000000000000, -54.96627066920721200, 7.033598616438818700 ) ) ;
#4 =( NAMED_UNIT ( * ) PLANE_ANGLE_UNIT ( ) SI_UNIT ( $, .RADIAN. ) );
#5 = PRESENTATION_STYLE_ASSIGNMENT (( #161 ) ) ;
#6 = FILL_AREA_STYLE ('',( #148 ) ) ;
#7 = SURFACE_STYLE_FILL_AREA ( #40 ) ;
#8 = PRESENTATION_LAYER_ASSIGNMENT (  '', '', ( #77 ) ) ;
#9 = ORIENTED_EDGE ( 'NONE', *, *, #137, .F. ) ;
#10 = UNCERTAINTY_MEASURE_WITH_UNIT (LENGTH_MEASURE( 1.000000000000000100E-005 ), #62, 'distance_accuracy_value', 'NONE');
#11 = VERTEX_POINT ( 'NONE', #43 ) ;
#12 = SPHERICAL_SURFACE ( 'NONE', #52, 3.500000000000003100 ) ;
#13 = ADVANCED_FACE ( 'NONE', ( #95 ), #12, .T. ) ;
#14 = PRESENTATION_LAYER_ASSIGNMENT (  '', '', ( #53 ) ) ;
#15 =( NAMED_UNIT ( * ) PLANE_ANGLE_UNIT ( ) SI_UNIT ( $, .RADIAN. ) );
#16 = ORIENTED_EDGE ( 'NONE', *, *, #94, .F. ) ;
#17 = FILL_AREA_STYLE ('',( #101 ) ) ;
#18 = SURFACE_SIDE_STYLE ('',( #47 ) ) ;
#19 =( NAMED_UNIT ( * ) PLANE_ANGLE_UNIT ( ) SI_UNIT ( $, .RADIAN. ) );
#20 = SURFACE_STYLE_FILL_AREA ( #6 ) ;
#21 = COLOUR_RGB ( '',1.000000000000000000, 1.000000000000000000, 1.000000000000000000 ) ;
#22 = PRESENTATION_LAYER_ASSIGNMENT (  '', '', ( #142 ) ) ;
#23 = MANIFOLD_SOLID_BREP ( 'Revolve1', #156 ) ;
#24 = PRODUCT_DEFINITION_SHAPE ( 'NONE', 'NONE',  #108 ) ;
#25 = UNCERTAINTY_MEASURE_WITH_UNIT (LENGTH_MEASURE( 1.000000000000000100E-005 ), #73, 'distance_accuracy_value', 'NONE');
#26 = CARTESIAN_POINT ( 'NONE',  ( 0.0000000000000000000, -54.96627066920721200, 7.033598616438818700 ) ) ;
#27 = CARTESIAN_POINT ( 'NONE',  ( 0.0000000000000000000, -51.46627066920721200, 7.033598616438818700 ) ) ;
#28 = SURFACE_SIDE_STYLE ('',( #7 ) ) ;
#29 = DIRECTION ( 'NONE',  ( 1.000000000000000000, 0.0000000000000000000, 0.0000000000000000000 ) ) ;
#30 = SURFACE_STYLE_USAGE ( .BOTH. , #125 ) ;
#31 = CARTESIAN_POINT ( 'NONE',  ( 0.0000000000000000000, -54.96627066920721200, 7.033598616438818700 ) ) ;
#32 =( LENGTH_UNIT ( ) NAMED_UNIT ( * ) SI_UNIT ( .MILLI., .METRE. ) );
#33 = VERTEX_POINT ( 'NONE', #44 ) ;
#34 = PRESENTATION_LAYER_ASSIGNMENT (  '', '', ( #123 ) ) ;
#35 = COLOUR_RGB ( '',1.000000000000000000, 0.5019607843137254800, 0.5019607843137254800 ) ;
#36 = FACE_OUTER_BOUND ( 'NONE', #72, .T. ) ;
#37 = ADVANCED_BREP_SHAPE_REPRESENTATION ( 'CTN002731', ( #23, #118 ), #155 ) ;
#38 = ORIENTED_EDGE ( 'NONE', *, *, #70, .T. ) ;
#39 = ORIENTED_EDGE ( 'NONE', *, *, #94, .T. ) ;
#40 = FILL_AREA_STYLE ('',( #122 ) ) ;
#41 = DIRECTION ( 'NONE',  ( 0.0000000000000000000, 0.0000000000000000000, -1.000000000000000000 ) ) ;
#42 = CIRCLE ( 'NONE', #131, 3.500000000000003100 ) ;
#43 = CARTESIAN_POINT ( 'NONE',  ( 4.286263797015740000E-016, -54.96627066920721200, 10.53359861643882100 ) ) ;
#44 = CARTESIAN_POINT ( 'NONE',  ( 0.0000000000000000000, -54.96627066920721200, 3.533598616438815600 ) ) ;
#45 = FILL_AREA_STYLE ('',( #136 ) ) ;
#46 = SURFACE_SIDE_STYLE ('',( #69 ) ) ;
#47 = SURFACE_STYLE_FILL_AREA ( #159 ) ;
#48 = FILL_AREA_STYLE_COLOUR ( '', #133 ) ;
#49 =( GEOMETRIC_REPRESENTATION_CONTEXT ( 3 ) GLOBAL_UNCERTAINTY_ASSIGNED_CONTEXT ( ( #1 ) ) GLOBAL_UNIT_ASSIGNED_CONTEXT ( ( #89, #86, #74 ) ) REPRESENTATION_CONTEXT ( 'NONE', 'WORKASPACE' ) );
#50 = DIRECTION ( 'NONE',  ( 1.000000000000000000, 0.0000000000000000000, 0.0000000000000000000 ) ) ;
#51 = CIRCLE ( 'NONE', #56, 3.500000000000003100 ) ;
#52 = AXIS2_PLACEMENT_3D ( 'NONE', #31, #90, #152 ) ;
#53 = STYLED_ITEM ( 'NONE', ( #150 ), #37 ) ;
#54 = SURFACE_STYLE_FILL_AREA ( #45 ) ;
#55 = MECHANICAL_DESIGN_GEOMETRIC_PRESENTATION_REPRESENTATION (  '', ( #53 ), #134 ) ;
#56 = AXIS2_PLACEMENT_3D ( 'NONE', #3, #96, #132 ) ;
#57 = DIRECTION ( 'NONE',  ( -0.0000000000000000000, -1.000000000000000000, -0.0000000000000000000 ) ) ;
#58 = CARTESIAN_POINT ( 'NONE',  ( 0.0000000000000000000, -54.96627066920721200, 7.033598616438818700 ) ) ;
#59 =( NAMED_UNIT ( * ) SI_UNIT ( $, .STERADIAN. ) SOLID_ANGLE_UNIT ( ) );
#60 = CIRCLE ( 'NONE', #154, 3.500000000000003100 ) ;
#61 = ADVANCED_FACE ( 'NONE', ( #140 ), #126, .T. ) ;
#62 =( LENGTH_UNIT ( ) NAMED_UNIT ( * ) SI_UNIT ( .MILLI., .METRE. ) );
#63 = MECHANICAL_DESIGN_GEOMETRIC_PRESENTATION_REPRESENTATION (  '', ( #142 ), #49 ) ;
#64 = UNCERTAINTY_MEASURE_WITH_UNIT (LENGTH_MEASURE( 1.000000000000000100E-005 ), #32, 'distance_accuracy_value', 'NONE');
#65 = APPLICATION_CONTEXT ( 'automotive_design' ) ;
#66 = PRODUCT_DEFINITION_FORMATION_WITH_SPECIFIED_SOURCE ( 'ANY', '', #93, .NOT_KNOWN. ) ;
#67 = ORIENTED_EDGE ( 'NONE', *, *, #137, .T. ) ;
#68 = AXIS2_PLACEMENT_3D ( 'NONE', #157, #57, #146 ) ;
#69 = SURFACE_STYLE_FILL_AREA ( #17 ) ;
#70 = EDGE_CURVE ( 'NONE', #110, #33, #51, .T. ) ;
#71 =( NAMED_UNIT ( * ) SI_UNIT ( $, .STERADIAN. ) SOLID_ANGLE_UNIT ( ) );
#72 = EDGE_LOOP ( 'NONE', ( #9, #38, #16 ) ) ;
#73 =( LENGTH_UNIT ( ) NAMED_UNIT ( * ) SI_UNIT ( .MILLI., .METRE. ) );
#74 =( NAMED_UNIT ( * ) SI_UNIT ( $, .STERADIAN. ) SOLID_ANGLE_UNIT ( ) );
#75 = DIRECTION ( 'NONE',  ( -0.0000000000000000000, -1.000000000000000000, -0.0000000000000000000 ) ) ;
#76 = APPLICATION_PROTOCOL_DEFINITION ( 'draft international standard', 'automotive_design', 1998, #104 ) ;
#77 = STYLED_ITEM ( 'NONE', ( #105 ), #120 ) ;
#78 = STYLED_ITEM ( 'NONE', ( #87 ), #23 ) ;
#79 = AXIS2_PLACEMENT_3D ( 'NONE', #58, #147, #41 ) ;
#80 = CARTESIAN_POINT ( 'NONE',  ( 0.0000000000000000000, -54.96627066920721200, 7.033598616438818700 ) ) ;
#81 =( LENGTH_UNIT ( ) NAMED_UNIT ( * ) SI_UNIT ( .MILLI., .METRE. ) );
#82 =( NAMED_UNIT ( * ) PLANE_ANGLE_UNIT ( ) SI_UNIT ( $, .RADIAN. ) );
#83 = ORIENTED_EDGE ( 'NONE', *, *, #88, .F. ) ;
#84 = SHAPE_DEFINITION_REPRESENTATION ( #24, #37 ) ;
#85 = UNCERTAINTY_MEASURE_WITH_UNIT (LENGTH_MEASURE( 1.000000000000000100E-005 ), #112, 'distance_accuracy_value', 'NONE');
#86 =( NAMED_UNIT ( * ) PLANE_ANGLE_UNIT ( ) SI_UNIT ( $, .RADIAN. ) );
#87 = PRESENTATION_STYLE_ASSIGNMENT (( #30 ) ) ;
#88 = EDGE_CURVE ( 'NONE', #33, #11, #130, .T. ) ;
#89 =( LENGTH_UNIT ( ) NAMED_UNIT ( * ) SI_UNIT ( .MILLI., .METRE. ) );
#90 = DIRECTION ( 'NONE',  ( 1.000000000000000000, 0.0000000000000000000, 0.0000000000000000000 ) ) ;
#91 = PRESENTATION_STYLE_ASSIGNMENT (( #113 ) ) ;
#92 = MECHANICAL_DESIGN_GEOMETRIC_PRESENTATION_REPRESENTATION (  '', ( #123 ), #107 ) ;
#93 = PRODUCT ( 'CTN002731', 'CTN002731', '', ( #139 ) ) ;
#94 = EDGE_CURVE ( 'NONE', #11, #33, #42, .T. ) ;
#95 = FACE_OUTER_BOUND ( 'NONE', #144, .T. ) ;
#96 = DIRECTION ( 'NONE',  ( -1.000000000000000000, 0.0000000000000000000, 0.0000000000000000000 ) ) ;
#97 = CARTESIAN_POINT ( 'NONE',  ( 0.0000000000000000000, 0.0000000000000000000, 0.0000000000000000000 ) ) ;
#98 =( NAMED_UNIT ( * ) SI_UNIT ( $, .STERADIAN. ) SOLID_ANGLE_UNIT ( ) );
#99 =( NAMED_UNIT ( * ) SI_UNIT ( $, .STERADIAN. ) SOLID_ANGLE_UNIT ( ) );
#100 = PRODUCT_RELATED_PRODUCT_CATEGORY ( 'part', '', ( #93 ) ) ;
#101 = FILL_AREA_STYLE_COLOUR ( '', #143 ) ;
#102 = SURFACE_SIDE_STYLE ('',( #20 ) ) ;
#103 = ORIENTED_EDGE ( 'NONE', *, *, #88, .T. ) ;
#104 = APPLICATION_CONTEXT ( 'automotive_design' ) ;
#105 = PRESENTATION_STYLE_ASSIGNMENT (( #158 ) ) ;
#106 = PRESENTATION_LAYER_ASSIGNMENT (  '', '', ( #78 ) ) ;
#107 =( GEOMETRIC_REPRESENTATION_CONTEXT ( 3 ) GLOBAL_UNCERTAINTY_ASSIGNED_CONTEXT ( ( #10 ) ) GLOBAL_UNIT_ASSIGNED_CONTEXT ( ( #62, #149, #71 ) ) REPRESENTATION_CONTEXT ( 'NONE', 'WORKASPACE' ) );
#108 = PRODUCT_DEFINITION ( 'UNKNOWN', '', #66, #145 ) ;
#109 =( GEOMETRIC_REPRESENTATION_CONTEXT ( 3 ) GLOBAL_UNCERTAINTY_ASSIGNED_CONTEXT ( ( #151 ) ) GLOBAL_UNIT_ASSIGNED_CONTEXT ( ( #81, #4, #98 ) ) REPRESENTATION_CONTEXT ( 'NONE', 'WORKASPACE' ) );
#110 = VERTEX_POINT ( 'NONE', #27 ) ;
#111 = DIRECTION ( 'NONE',  ( 0.0000000000000000000, 0.0000000000000000000, -1.000000000000000000 ) ) ;
#112 =( LENGTH_UNIT ( ) NAMED_UNIT ( * ) SI_UNIT ( .MILLI., .METRE. ) );
#113 = SURFACE_STYLE_USAGE ( .BOTH. , #46 ) ;
#114 = COLOUR_RGB ( '',1.000000000000000000, 1.000000000000000000, 1.000000000000000000 ) ;
#115 = SURFACE_STYLE_USAGE ( .BOTH. , #18 ) ;
#116 =( NAMED_UNIT ( * ) SI_UNIT ( $, .STERADIAN. ) SOLID_ANGLE_UNIT ( ) );
#117 = MECHANICAL_DESIGN_GEOMETRIC_PRESENTATION_REPRESENTATION (  '', ( #77 ), #109 ) ;
#118 = AXIS2_PLACEMENT_3D ( 'NONE', #97, #128, #50 ) ;
#119 = SPHERICAL_SURFACE ( 'NONE', #2, 3.500000000000003100 ) ;
#120 = ADVANCED_FACE ( 'NONE', ( #36 ), #119, .T. ) ;
#121 =( GEOMETRIC_REPRESENTATION_CONTEXT ( 3 ) GLOBAL_UNCERTAINTY_ASSIGNED_CONTEXT ( ( #85 ) ) GLOBAL_UNIT_ASSIGNED_CONTEXT ( ( #112, #15, #99 ) ) REPRESENTATION_CONTEXT ( 'NONE', 'WORKASPACE' ) );
#122 = FILL_AREA_STYLE_COLOUR ( '', #114 ) ;
#123 = STYLED_ITEM ( 'NONE', ( #5 ), #61 ) ;
#124 = DIRECTION ( 'NONE',  ( 0.0000000000000000000, 0.0000000000000000000, -1.000000000000000000 ) ) ;
#125 = SURFACE_SIDE_STYLE ('',( #54 ) ) ;
#126 = PLANE ( 'NONE',  #79 ) ;
#127 = DIRECTION ( 'NONE',  ( 1.000000000000000000, 0.0000000000000000000, -1.224646799147353200E-016 ) ) ;
#128 = DIRECTION ( 'NONE',  ( 0.0000000000000000000, 0.0000000000000000000, 1.000000000000000000 ) ) ;
#129 = MECHANICAL_DESIGN_GEOMETRIC_PRESENTATION_REPRESENTATION (  '', ( #78 ), #121 ) ;
#130 = CIRCLE ( 'NONE', #68, 3.500000000000003100 ) ;
#131 = AXIS2_PLACEMENT_3D ( 'NONE', #26, #75, #111 ) ;
#132 = DIRECTION ( 'NONE',  ( 0.0000000000000000000, 0.0000000000000000000, 1.000000000000000000 ) ) ;
#133 = COLOUR_RGB ( '',1.000000000000000000, 0.5019607843137254800, 0.5019607843137254800 ) ;
#134 =( GEOMETRIC_REPRESENTATION_CONTEXT ( 3 ) GLOBAL_UNCERTAINTY_ASSIGNED_CONTEXT ( ( #64 ) ) GLOBAL_UNIT_ASSIGNED_CONTEXT ( ( #32, #19, #116 ) ) REPRESENTATION_CONTEXT ( 'NONE', 'WORKASPACE' ) );
#135 = EDGE_LOOP ( 'NONE', ( #103, #39 ) ) ;
#136 = FILL_AREA_STYLE_COLOUR ( '', #35 ) ;
#137 = EDGE_CURVE ( 'NONE', #110, #11, #60, .T. ) ;
#138 = CARTESIAN_POINT ( 'NONE',  ( 0.0000000000000000000, -54.96627066920721200, 7.033598616438818700 ) ) ;
#139 = PRODUCT_CONTEXT ( 'NONE', #104, 'mechanical' ) ;
#140 = FACE_OUTER_BOUND ( 'NONE', #135, .T. ) ;
#141 = ORIENTED_EDGE ( 'NONE', *, *, #70, .F. ) ;
#142 = STYLED_ITEM ( 'NONE', ( #91 ), #13 ) ;
#143 = COLOUR_RGB ( '',1.000000000000000000, 1.000000000000000000, 1.000000000000000000 ) ;
#144 = EDGE_LOOP ( 'NONE', ( #141, #67, #83 ) ) ;
#145 = PRODUCT_DEFINITION_CONTEXT ( 'detailed design', #65, 'design' ) ;
#146 = DIRECTION ( 'NONE',  ( 0.0000000000000000000, 0.0000000000000000000, -1.000000000000000000 ) ) ;
#147 = DIRECTION ( 'NONE',  ( 0.0000000000000000000, -1.000000000000000000, -0.0000000000000000000 ) ) ;
#148 = FILL_AREA_STYLE_COLOUR ( '', #21 ) ;
#149 =( NAMED_UNIT ( * ) PLANE_ANGLE_UNIT ( ) SI_UNIT ( $, .RADIAN. ) );
#150 = PRESENTATION_STYLE_ASSIGNMENT (( #115 ) ) ;
#151 = UNCERTAINTY_MEASURE_WITH_UNIT (LENGTH_MEASURE( 1.000000000000000100E-005 ), #81, 'distance_accuracy_value', 'NONE');
#152 = DIRECTION ( 'NONE',  ( 0.0000000000000000000, 0.0000000000000000000, -1.000000000000000000 ) ) ;
#153 = APPLICATION_PROTOCOL_DEFINITION ( 'draft international standard', 'automotive_design', 1998, #65 ) ;
#154 = AXIS2_PLACEMENT_3D ( 'NONE', #138, #127, #160 ) ;
#155 =( GEOMETRIC_REPRESENTATION_CONTEXT ( 3 ) GLOBAL_UNCERTAINTY_ASSIGNED_CONTEXT ( ( #25 ) ) GLOBAL_UNIT_ASSIGNED_CONTEXT ( ( #73, #82, #59 ) ) REPRESENTATION_CONTEXT ( 'NONE', 'WORKASPACE' ) );
#156 = CLOSED_SHELL ( 'NONE', ( #13, #120, #61 ) ) ;
#157 = CARTESIAN_POINT ( 'NONE',  ( 0.0000000000000000000, -54.96627066920721200, 7.033598616438818700 ) ) ;
#158 = SURFACE_STYLE_USAGE ( .BOTH. , #28 ) ;
#159 = FILL_AREA_STYLE ('',( #48 ) ) ;
#160 = DIRECTION ( 'NONE',  ( -1.224646799147353200E-016, 0.0000000000000000000, -1.000000000000000000 ) ) ;
#161 = SURFACE_STYLE_USAGE ( .BOTH. , #102 ) ;
ENDSEC;
END-ISO-10303-21;
